Cifras Web
Sword

Horned Goddess

Sword

3 acessos

Tuning: Drop C (CGCFAd)
Tabbed by: Frankv

h = hammer on
p = pull off
b = bend
r = release
v = vibrato
/ = slide up
\ = slide down
P = palm mute

Incubosity suggested that the tuning really is C standard, so if you find it 
to play the song like this drop the top 5 stings a full step (to CFA#D#Gc) and play the notes at 
strings 2 frets higher.

0:02
1x         3x               4x

----------|----------------|-------------------------------------------------|
----------|----------------|-------------------------------------------------|
----------|-7--5--5--------|-7--5--5-------------------------5-7----7-7p5----|
-0--------|-7--5--5--7-----|-7--5--5--7----------------5-5h7--------------7--|
-0--------|-5--3--3--5-----|-5--3--3--5---------3-5--------------------------|
-0--------|----------0-----|----------0---5-5h7------------------------------|


0:47

----------------------------------------------------------------------|
----------------------------------------------------------------------|
-7--5--5--------------------------------------------------------------|
-7--5--5--------------------------------------------------------------|
-5--3--3--0-----------------------------------------------------------|
----------0---12-10-0-12-10-0-12-11-0-12-10-0-12-10-0-10-12-10-9-10-9-|



-------------------------------------------------------------|
-------------------------------------------------------------|
-------------------------------------------------------------|
-------------------------------------------------------------|
-0-----------------------------------------------------------|
-0---12-10-0-12-10-0-12-11-0-12-10-0-12-10-0-12-15-17-17b18v-|



--------------------------------------------------------------|
--------------------------------------------------------------|
--------------------------------------------------------------|
--------------------------------------------------------------|
--0-----------------------------------------------------------|
--0---12-10-0-12-10-0-12-11-0-12-10-0-12-10-0-10-12-10-9-10-9-|



----------------------------------------------------------------|
----------------------------------------------------------------|
----------------------------------------------------------------|
----------------------------------------------------------------|
--0-------------------------------------------------------------|
--0---12-10-0-12-10-0-12-11-0-12-10-0-12-10-0-17-19-17-15-17-15-|


1:03    p p   p p   p p

-------------------------------------------|
-------------------------------------------|
-------------------------------------------|
-------------------------------------------|
--0---0-0-0-0-0-0-0-0-0---5-6--5---3--5-3--|
--0---0-0-0-0-0-0-0-0-0---5-6--5---3--5-3--|


 3x p p   p p   p p   p p

---------------------------------------------|
---------------------------------------------|
---------------------------------------------|
---------------------------------------------|
--0-0-0-0-0-0-0-0-0-0-0-0---5-6--5---3--5-3--|
--0-0-0-0-0-0-0-0-0-0-0-0---5-6--5---3--5-3--|


1:18

----------------------|------------------------|
--------8b9r--8\6-----|--------8b9r--8\6--6\5--|
--------7b8r--7\5-----|--------7b8r--7\5--5\4--|
--7--7------------5/7-|--7--7------------------|
--5--5------------3/5-|--5--5------------------|
--0--0----------------|--0--0------------------|



----------------------|------------------------|
--------8b9r--8\6-----|--------8b9r--8\6-------|
--------7b8r--7\5-----|--------7b8r--7\5-------|
--7--7------------5/7-|--7--7-------------5\4--|
--5--5------------3/5-|--5--5-------------3\2--|
--0--0----------------|--0--0------------------|


1:34

-------------------------------|---------------------------------------|
-------------------------------|---------------------------------------|
-------------------------------|---------------------------------------|
--------------7--7-7--7-7--5-5-|---------------------------------------|
--0--0--0--0--5--5-5--5-5--3-3-|--0--0---------------------------------|
--0--0--0--0--0--0-0--0-0------|--0--0-/12--10-12--15--12-10--9--10-9--|



-------------------------------|---------------------------------------------|
-------------------------------|---------------------------------------------|
-------------------------------|---------------------------------------------|
--------------7--7-7--7-7--5-7-|---------------------------------------------|
--0--0--0--0--5--5-5--5-5--3-5-|--0--0---------------------------------------|
--0--0--0--0--0--0-0--0-0------|--0--0--/12--10-12--15--12-15--15b17--15-12--|



-------------------------------|-----------------------------------------|
-------------------------------|-----------------------------------------|
-------------------------------|-----------------------------------------|
--------------7--7-7--7-7--5-5-|-----------------------------------------|
--0--0--0--0--5--5-5--5-5--3-3-|--0--0-----------------------------------|
--0--0--0--0--0--0-0--0-0------|--0--0-/12--10-12--15--12-15--14--15-14--|



-------------------------------|---------------------------------------------|
-------------------------------|---------------------------------------------|
-------------------------------|---------------------------------------------|
--------------7--7-7--7-7--5-7-|---------------------------------------------|
--0--0--0--0--5--5-5--5-5--3-5-|--0--0---------------------------------------|
--0--0--0--0--0--0-0--0-0------|--0--0--/12--10-12--15--12-15--15b17--15-12--|


2:05  Play these bars 2x

--------------------|---------------------|
--------------------|---------------------|
--------------------|---------------------|
--0--12\0---0---6-6-|--0--12\0--0---10-10-|
--0--12\0---0---6-6-|--0--12\0--0---10-10-|
--0--12\0---0---6-6-|--0--12\0--0---10-10-|


2:21

--------------------------------------------------------------|
--------------------------------------------------------------|
--------------------------------------------------------------|
--------------------------------------------------------------|
--0-----------------------------------------------------------|
--0---12-10-0-12-10-0-12-11-0-12-10-0-12-10-0-10-12-10-9-10-9-|



-------------------------------------------------------------------|
-------------------------------------------------------------------|
-------------------------------------------------------------------|
-------------------------------------------------------------------|
--0----------------------------------------------------------15-17-|
--0---12-10-0-12-10-0-12-11-0-12-10-0-12-10-0-15-17-15-17/19*------|

* Good luck with this slide, it’s really fast.


--------------------------------------------------------------|
--------------------------------------------------------------|
--------------------------------------------------------------|
--------------------------------------------------------------|
--0-----------------------------------------------------------|
--0---12-10-0-12-10-0-12-11-0-12-10-0-12-10-0-10-12-10-9-10-9-|



----------------------------------------------------------------|
----------------------------------------------------------------|
----------------------------------------------------------------|
----------------------------------------------------------------|
--0-------------------------------------------------------------|
--0---12-10-0-12-10-0-12-11-0-12-10-0-12-10-0-17-19-17-15-17-15-|


2:36    p p   p p   p p

-------------------------------------------|
-------------------------------------------|
-------------------------------------------|
-------------------------------------------|
--0---0-0-0-0-0-0-0-0-0---5-6--5---3--5-3--|
--0---0-0-0-0-0-0-0-0-0---5-6--5---3--5-3--|


 3x p p   p p   p p   p p

---------------------------------------------|
---------------------------------------------|
---------------------------------------------|
---------------------------------------------|
--0-0-0-0-0-0-0-0-0-0-0-0---5-6--5---3--5-3--|
--0-0-0-0-0-0-0-0-0-0-0-0---5-6--5---3--5-3--|


I can’t figure out the solo, because I can’t play that fast, but I do know it’s in Cm.

2:51

----------------------|------------------------|
--------8b9r--8\6-----|--------8b9r--8\6--6\5--|
--------7b8r--7\5-----|--------7b8r--7\5--5\4--|
--7--7------------5/7-|--7--7------------------|
--5--5------------3/5-|--5--5------------------|
--0--0----------------|--0--0------------------|



----------------------|------------------------|
--------8b9r--8\6-----|--------8b9r--8\6-------|
--------7b8r--7\5-----|--------7b8r--7\5-------|
--7--7------------5/7-|--7--7-------------5\4--|
--5--5------------3/5-|--5--5-------------3\2--|
--0--0----------------|--0--0------------------|


3:07

-------------------------------|---------------------------------------|
-------------------------------|---------------------------------------|
-------------------------------|---------------------------------------|
--------------7--7-7--7-7--5-7-|---------------------------------------|
--0--0--0--0--5--5-5--5-5--3-5-|--0--0---------------------------------|
--0--0--0--0--0--0-0--0-0------|--0--0-/12--10-12--15--12-10--9--10-9--|



-------------------------------|---------------------------------------------|
-------------------------------|---------------------------------------------|
-------------------------------|---------------------------------------------|
--------------7--7-7--7-7--5-5-|---------------------------------------------|
--0--0--0--0--5--5-5--5-5--3-3-|--0--0---------------------------------------|
--0--0--0--0--0--0-0--0-0------|--0--0--/12--10-12--15--12-15--15b17--15-12--|



-------------------------------|-----------------------------------------|
-------------------------------|-----------------------------------------|
-------------------------------|-----------------------------------------|
--------------7--7-7--7-7--5-7-|-----------------------------------------|
--0--0--0--0--5--5-5--5-5--3-5-|--0--0-----------------------------------|
--0--0--0--0--0--0-0--0-0------|--0--0-/12--10-12--15--12-15--14--15-14--|



-------------------------------|---------------------------------------------|
-------------------------------|---------------------------------------------|
-------------------------------|---------------------------------------------|
--------------7--7-7--7-7--5-5-|---------------------------------------------|
--0--0--0--0--5--5-5--5-5--3-3-|--0--0---------------------------------------|
--0--0--0--0--0--0-0--0-0------|--0--0--/12--10-12--15--12-15--15b17--15-12--|


3:39

------------------|
------------------|
------------------|
------------------|
--0--0------------|
--0--0------------|


3:43  4x

-----------------------------------------|
-----------------------------------------|
-----------------------------------------|
-----------------------------------------|
--0--0--12--10-12--15--12-15--17--15-12--|
--0--0--12--10-12--15--12-15--17--15-12--|



---------------------------------------|
---------------------------------------|
---------------------------------------|
---------------------------------------|
--0--0--12--10-12--15--12-10--9--10-9--|
--0--0--12--10-12--15--12-10--9--10-9--|



-----------------------------------------|
-----------------------------------------|
-----------------------------------------|
-----------------------------------------|
--0--0--12--10-12--15--12-15--17--15-14--|
--0--0--12--10-12--15--12-15--17--15-14--|



---------------------------------------|
---------------------------------------|
---------------------------------------|
---------------------------------------|
--0--0--12--10-12--15--12-10--9--10-9--|
--0--0--12--10-12--15--12-10--9--10-9--|




-------------------------------------|
-------------------------------------|
-------------------------------------|
------------------------------10-10--|
--0--0--12--10-12--15--12-15--10-10--|
--0--0--12--10-12--15--12-15--10-10--|


4:14  1x   3x               4x

----------|----------------|-------------------------------------------------|
----------|----------------|-------------------------------------------------|
----------|-7--5--5--------|-7--5--5-------------------------5-7----7-7p5----|
-0--------|-7--5--5--7-----|-7--5--5--7----------------5-5h7--------------7--|
-0--------|-5--3--3--5-----|-5--3--3--5---------3-5--------------------------|
-0--------|----------0-----|----------0---5-5h7------------------------------|


4:58
-----------|
-----------|
--7--5--5--|
--7--5--5--|
--5--3--3--|
-----------|

TOP cifras de Sword

  1. Dare To Spit
  2. Follow The Wheel
  3. Freya
  4. Iron Swan
  5. Winter Wolves
  6. Winters Wolves
  7. Winters Wolves Intro
  8. Baraels Blade
  9. Outta Control
  10. Celestial Crown

Pela Web