Cifras Web
Sword

Iron Swan

Sword

5 acessos

Yeahh this is my first tab i hope you like it. Im 13 years old .
This song is amazing. The riffs have a killer sound. The low E string is dropped 5 
High distortion is used. The outro is done on bass but i added that part anyway :P

Keep rocking,
             ~Nï¢k BRÜñó~


e----------------------|
b-5--6--5---8-6-5--3--5|
g----------------------|
d----------------------|
a----------------------|
E----------------------|



e----------------------|
b-5--6--5--3--5--6--5--|
g----------------------|
d----------------------|
a----------------------|
E----------------------|



e--------------------------|
b-5--6--5--8--6--5--6--5--3|
g--------------------------|
d--------------------------|
a--------------------------|
E--------------------------|



e--------------------------|
b-5--6--5--3--1--3--1-----1|
g----------------------3---|
d--------------------------|
a--------------------------|
E--------------------------|



e--------------------------|
b--------------------------|
g--------------------------|
d-7--8--7--5--7--8--7--5---|
a--------------------------|
E--------------------------|



e--------------------------|
b--------------------------|
g-7--8--7--5--7--8---7-----|
d--------------------------|
a--------------------------|
E--------------------------|



e---------------------------|
b---------------------------|
g-7--8--7--5--7--8--10--8--7|
d---------------------------|
a---------------------------|
E---------------------------|



e---------------------------------|
b---------------------------------|
g---------------------------------|
d-7--8--7--10--8--10--12--10--12--|
a---------------------------------|
E---------------------------------|



e------------------------|
b-5--6--5--8--6--5--3--5-|
g------------------------|
d------------------------|
a------------------------|
E------------------------|



e------------------------|
b-5--6--5--3--5--6--5----|
g------------------------|
d------------------------|
a------------------------|
E------------------------|



e----------------------------|
b-5--6--5--8--6--5--6--5--3--|
g----------------------------|
d----------------------------|
a----------------------------|
E----------------------------|



e------------------------|
b-5--6--5--6--5--6--8----|
g------------------------|
d------------------------|
a------------------------|
E----------------------0-|


pause..


e------------------------|
b------------------------|
g-3--5---3---5---3--5----|
d-3--5---3---5---3--5----|
a-1--3---1---3---1--3----|
E------------------------|



e------------------------|
b------------------------|
g-5--3--5--6--5--3--3--5-|
d-5--3--5--6--5--3--3--5-|
a-3--1--3--4--3--1--1--3-|
E------------------------|



e-------------------------|
b-------------------------|
g---------3--5-------3--5-|
d---------3--5-------3--5-|
a---------1--3-------1--3-|
E-0000000-----0000000-----|



e------------------------|
b------------------------|
g---------3--5-----------|
d---------3--5-----------|
a---------1--3-----------|
E-0000000-----0000000----|



e------------------------|
b------------------------|
g-6--5--6--8--6--5-------|
d-6--5--6--8--6--5-------|
a-4--3--4--6--4--3-------|
E------------------------|



e----------------------------|
b----------------------------|
g---------3--5---------3--5--|
d---------3--5---------3--5--|
a---------1--3---------1--3--|
E-0000000-----0000000--------|



e------------------------|
b------------------------|
g---------3--5-----------|
d---------3--5-----------|
a---------1--3-----------|
E-0000000-----0000000----|



e------------------------|
b------------------------|
g-5--3--5--6--5--3--3--5-|
d-5--3--5--6--5--3--3--5-|
a-3--1--3--4--3--1--1--3-|
E------------------------|



e-------------------------|
b-------------------------|
g---------3--5-------3--5-|
d---------3--5-------3--5-|
a---------1--3-------1--3-|
E-0000000-----0000000-----|



e------------------------|
b------------------------|
g---------3--5-----------|
d---------3--5-----------|
a---------1--3-----------|
E-0000000-----0000000----|



e------------------------|
b------------------------|
g-5--3--5--1-------------|
d-5--3--5--3-------------|
a-3--1--3--3-------------|
E-------------6--5--6--5-|



e--------------------------|
b--------------------------|
g--------------------------|
d--------------------------|
a--------------------------|
E-5-5-5-5-5-5-5-5-6-5------|


e--------------------------|
b--------------------------|
g--------------------------|
d--------------------------|
a--------------------------|
E-5-5-5-5-5-5-5-5-6-5------|



e---------------------------------------|
b---------------------------------------|
g---------------------------------------|
d---------------------------------------|
a-----------------3333--1111--4444--6666|
E-5-5-5-5-5-5-5-5-----------------------|



e----------------------------------|
b----------------------------------|
g----------------------------------|
d----------------------------------|
a----------------------------------|
E-6-5-5-5-5-5-5-5-6-5-5-5-5-5-5-5-5|



e------------------------------------|
b------------------------------------|
g----------------------------333-3--5|
d----------------------------333-3--5|
a----------------------------111-1--3|
E-6-5-5-5-5-5-5-5-5-5-0--0--0--------|



e----------------------------|
b----------------------------|
g---------3--5---------3--5--|
d---------3--5---------3--5--|
a---------1--3---------1--3--|
E-0000000-----0000000--------|



e------------------------|
b------------------------|
g---------3--5-----------|
d---------3--5-----------|
a---------1--3-----------|
E-0000000-----0000000----|



e------------------------|
b------------------------|
g-5--3--5--6--5--3--3--5-|
d-5--3--5--6--5--3--3--5-|
a-3--1--3--4--3--1--1--3-|
E------------------------|



e-------------------------|
b-------------------------|
g---------3--5-------3--5-|
d---------3--5-------3--5-|
a---------1--3-------1--3-|
E-0000000-----0000000-----|



e------------------------|
b------------------------|
g---------3--5-----------|
d---------3--5-----------|
a---------1--3-----------|
E-0000000-----0000000----|



e------------------------|
b------------------------|
g-6--5--6--8--6--5-------|
d-6--5--6--8--6--5-------|
a-4--3--4--6--4--3-------|
E---------------------0--|



e-------------------------------|
b-------------------------------|
g--10--12--10--8--10--8--7--8--5|
d-------------------------------|
a-------------------------------|
E-------------------------------|



e----------------------------------------------|
b----------------------------------------------|
g-8--7--8--10--8--5--5--5--3----3--5----8--7--5|
d-----------------------------5-------5--------|
a----------------------------------------------|
E----------------------------------------------|



e----------------------------|
b----------------------------|
g-8--7--8--10bend------------|
d----------------------------|
a----------------------------|
E------------------0--0--0--0|


another pause..


e----------------------------|
b----------------------------|
g----------------------------|
d----------------------------|
a----------------------------|
E-6--3--000-000-000-000-000--|



e--------------------------------|
b--------------------------------|
g----5--5--5--5--5--5--3--6--3--5|
d----5--5--5--5--5--5--3--6--3--5|
a----3--3--3--3--3--3--1--4--1--3|
E-6------------------------------|



e----------------------------|
b----------------------------|
g----------------------------|
d----------------------------|
a----------------------------|
E-000-000-000-000-000-000--6-|



e----------------------------------|
b----------------------------------|
g----5--5--5--5--5--5--3--6--3--5--|
d----5--5--5--5--5--5--3--6--3--5--|
a----3--3--3--3--3--3--1--4--1--3--|
E----------------------------------|


"Iron ships on seas of blood"

e----------------------------|
b----------------------------|
g----------------------------|
d----------------------------|
a----------------------------|
E-000-000-000-000-000-000--6-|


"Black winds fill their silver sails"

e--------------------------------|
b--------------------------------|
g----5--5--5--5--3--3--3--6--3--5|
d----5--5--5--5--3--3--3--6--3--5|
a----3--3--3--3--1--1--1--4--1--3|
E--------------------------------|


"Iron swan rises high above"

e----------------------------|
b----------------------------|
g----------------------------|
d----------------------------|
a----------------------------|
E-000-000-000-000-000-000--6-|


"In crimson twilight through the earthly veil"

e--------------------------------|
b--------------------------------|
g----5--5--5--5--3--3--3--8--5---|
d----5--5--5--5--3--3--3--8--5---|
a----3--3--3--3--1--1--1--6--3---|
E--------------------------------|


(this parts a little tricky)

e-------------------------------------------------|
b-------------------------------------------------|
g-6666-3333------------------5--------------------|
d------------6666-33333-6----5--------------------|
a----------------------------3--------------------|
E-------------------------0-----3--5--3--5--6----3|



e------------------------------------------------------------|
b-----------------------3333-4444----------------------------|
g------------3333-66666--------------5-----------------------|
d--3333-6666-------------------------5-----------------------|
a------------------------------------3-----------------------|
E----------------------------------0----3--5--3--5--6--5---6~|


(my favorite part)

e----------------------------|
b----------------------------|
g------------3-6-5-----------|
d------------3-6-5-----------|
a------------1-4-3-----------|
E-0-0---6-5--------5--3--6---|



e----------------------------|
b----------------------------|
g------------3-6-5-----------|
d------------3-6-5-----------|
a------------1-4-3-----------|
E-0000-6-5-6-------000-5-3-6-|



e----------------------------|
b----------------------------|
g------------3-6-5-----------|
d------------3-6-5-----------|
a------------1-4-3-----------|
E-0000-6-5-6-------000-5-3-6-|




e----------------------------|
b----------------------------|
g------------3-6-5-----------|
d------------3-6-5-----------|
a------------1-4-3-----------|
E-0000-6-5-6-------000-5--3--|


"Legions of vermin surround me"

e-------------------------|
b-------------------------|
g-3--5------3--5----------|
d-3--5------3--5----------|
a-1--3------1--3----------|
E-----000000------000000--|



"Malefic taint in their eyes"

e-----------------------------|
b-----------------------------|
g-3--5------3--5--------------|
d-3--5------3--5--------------|
a-1--3------1--3--------------|
E-----000000------000000-5-3-6|


"Madness gives sway to delusion"

e-------------------------|
b-------------------------|
g-3--5------3--5----------|
d-3--5------3--5----------|
a-1--3------1--3----------|
E-----000000------000000--|


"In defense of a fortress of lies"


e---------------------------|
b---------------------------|
g-3--5------3--5------------|
d-3--5------3--5------------|
a-1--3------1--3------------|
E-----000000------000000-5-3|



e--------------------------------|
b--------------------------------|
g--------------------------------|
d--------------------------------|
a--------------------------------|
E-0-x-x-0-x-x-0-x-x-0-x-x-0-SLIDE|



e--------------------------------|
b--------------------------------|
g--------------------------------|
d--------------------------------|
a--------------------------------|
E-0-x-x-0-x-x-0-x-x-0-x-x-0-5--3-|



e--------------------------------|
b--------------------------------|
g--------------------------------|
d--------------------------------|
a--------------------------------|
E-0-x-x-0-x-x-0-x-x-0-x-x-0-SLIDE|



e--------------------------------|
b--------------------------------|
g--------------------------------|
d--------------------------------|
a--------------------------------|
E-0-x-x-0-x-x-0-x-x-0-x-x-0-5--3-|



e---------------------------|
b---------------------------|
g---5--5--3--5--3--6-3--5---|
d---5--5--3--5--3--6-3--5---|
a---3--3--1--3--1--4-1--3---|
E-0-------------------------|



e---------------------------|
b---------------------------|
g---5--5--3--5--3-----------|
d---5--5--3--5--3-----------|
a---3--3--1--3--1-----------|
E-0---------------3--5------|



e---------------------------|
b---------------------------|
g---5--5--3--5--3--6-3--5---|
d---5--5--3--5--3--6-3--5---|
a---3--3--1--3--1--4-1--3---|
E-0-------------------------|



e---------------------------|
b---------------------------|
g---5--5--3--5--3-----------|
d---5--5--3--5--3-----------|
a---3--3--1--3--1-----------|
E-0---------------3--5------|


NOTE: the thing says i shouldnt put the whole solo so im just putting this part.

e------------------------------------------|
b------------------------------------------|
g--10--13--10-5--10--13--10-5-10-13-10-5--3|
d------------------------------------------|
a------------------------------------------|
E------------------------------------------|



e------------------------------------------|
b------------------------------------------|
g--10--13--10------------------------------|
d------------------------------------------|
a------------------------------------------|
E--------------6--4--6--7--6--4--6---------|



so on and so fourth with mass amounts of finger hammering..
starts back at 3:48 of the song

e-------------------------------------|
b-------------------------------------|
g-------------------------------------|
d-------------------------------------|
a-------------------------------------|
E-000-000-000-000-000-000-000-000-000-| 

TOP cifras de Sword

  1. Dare To Spit
  2. Follow The Wheel
  3. Freya
  4. Iron Swan
  5. Winter Wolves
  6. Winters Wolves
  7. Winters Wolves Intro
  8. Baraels Blade
  9. Outta Control
  10. Celestial Crown

Pela Web