Cifras Web
Symfonia

Alayna

Symfonia

5 acessos

Intro:

E|------------0-----------------0-----------------0-----------------0-------------|
B|---------1-----1-----------1-----1-----------1-----1-----------1-----1----------|
G|------4-----------4-----4-----------4-----4-----------4-----4-----------4-------|
D|---------------------------------------3-----------------3-----------------3----|
A|--0------------------0----------------------------------------------------------|
E|--------------------------------------------------------------------------------|


E|------------0-----------------0-------------------------------------------------|
B|---------1-----1-----------1-----1--------------3-------------------------------|
G|------4-----------4-----4-----------4--------0-----0----------------------------|
D|---0-----------------0--------------------0-----------0-------------------------|
A|--------------------------------------------------------------------------------|
E|---------------------------------------3-----------------3~~~~------------------|

2x


Am               F
Once we sailed together
G              Am
Once we had a dream
F                   C
The wind was gently touching our faces
Dm          E
Safe in you arms...

Am                  F
Your rainbow colored eyes
G                Am
Sunshine on your hair
   F                        C
We talked to the night, the sadness in you eyes
Dm                E
I knew you had to go...




Refão:

    Am            Dm
Alayna, the mystery
         G              E
You were mine until the day was gone
F                  Dm             E4 E
I thought you were meant to be forever
    Am                 Dm
Alayna, our souls were light
     G              E
As i held you in my arms so tight
F           Dm             E4  E
I saw god reflecting into your eyes,
   Am
My Angel...



_______________
~~~Intro 2x~~~|
---------------




Am                      F
Sometimes I wake in the night
 G                 Am
Screaming out your name
    F                        C
The call of your heart won't let me be,
     Dm                 E
Your voice echoes in my heart...



---Refrão---


   Bm            Em
Alayna, the mystery
         A              F#
You were mine until the day was gone
G                  Em            F#4 F#
I thought you were meant to be forever
    Bm                 Em
Alayna, our souls were light
     A              F#
As I held you in my arms so tight
G           Em            F#4  F#
I saw god reflecting into your eyes,
   G
My Angel...



---Solo: G|A|Bm..|G|A|F#..|G|A|Bm|D|G..|E...


Am                 F
Watching the stars above,
    G                     Am
The pond and the oak, the grass...
F                  C
We made a promise, love is forever,
Dm               E
I never saw you again...



---Refrão---


   Bm            Em
Alayna, the mystery
         A              F#
You were mine until the day was gone
G                  Em            F#4 F#
I thought you were meant to be forever
    Bm                 Em
Alayna, our souls were light
     A              F#
As I held you in my arms so tight
G           Em            F#4  F#
I saw god reflecting into your eyes,
   Bm
My Angel...

TOP cifras de Symfonia

  1. Don't Let me Go
  2. Alayna

Pela Web