Cifras Web
Tanizawa Tomofumi

Kimi Ni Todoke

Tanizawa Tomofumi

17 acessos

(Intro)


E|-2---2-------2-------2-------2---|
B|-2-------2-------2-------2-------|
G|-2-2---2---2---2---2---2---2---2-|
D|---------------------------------|
A|---------------------------------|
E|---------------------------------|


(riff 1 - Abafa as com a palma da mão a nota mais baixa)


E|-----2-------2-------2-------2---|----------------------------------|
B|-----2-------2-------2-------2---|-----2-------2-------2-------2----|
G|-----2-------2-------2-------2---|-----1-------1-------1-------1----|
D|-0-0---0-0-0---0-0-0---0-0-0---0-|-----2-------2-------2-------2----| (2X)
A|---------------------------------|-0-0---0-0-0---0-0-0---0-0-0---0--|
E|---------------------------------|----------------------------------|


(riff 2 - Mesmo esquema do riff 1)

E|-------------------|-------------------|-------------------|-------------------|
B|-------3-----3-----|-------3-----3-----|-------3-----3-----|-2-2---------------|
G|-------4-----4-----|-------3-----3-----|-------2-----2-----|-2-2---------------|
D|-4-4-4-4-4-4-4-4-X-|-4-4-4-4-4-4-4-4-X-|-4-4-4-4-4-4-4-4-X-|-4-4---------------|
A|-2-2-2---2-2---2-X-|-2-2-2---2-2---2-X-|-2-2-2---2-2---2-X-|-2-2---------------|
E|-------------------|-------------------|-------------------|-------------------|


(riff 1)
D7M A7M
yasashii hidamari ni CHAIMU ga DIREI suru
D7M A7M
hoho o naderu kaze ibuki wa fukaku natteku

(riff 2)
Bm Bm7M
toomawari no namida namaetsuketa ashita
Bm7 D/E
kasanaru mirai iro no RAIN

D E
adokenai konna kimochi mo
C#m F#m
hajiketobu hodo warai aeta hi mo
Bm C#7 F#m A7
taisetsu ni sodatete ikeru you ni
D E
togire togire no toki o koete
C#m F#m
takusan no hajimete o kureta
Bm E A D A
tsunagatte yuke todoke

( A D A D A5+ )

(riff 1)
D A
houkago no yuuyami warau kimi no senaka
D A
hisoka na sasayaki fureta koto no nai omoi no naka

(riff 2)
Bm Bm7M
boku no naka no kimi to kimi no naka no boku de
Bm7 D/E
karamaru mirai iro no RAIN

D E
ameagari no machi no nioi to
C#m F#m
yume mitai na himitsu mune ni daite
Bm C#7 F#m A7
nando mo nakisou ni natte mata warau
D E
kangaeru yori zutto hayaku
C#m F#m
sono mune ni tobikometara ii
F
tsunagatte yuke todoke

F C/E Am Dm F G D7 2(compassos) Gsus4 G Esus4 E
nani yori mo daiji na kimi no mae de
kizukanai you ni daiji ni shiteta no wa sou jibun
sono hito no koto ga moshi mo SAYONARA no kawari ni natte shimatte mo
ari no mama subete

Adokenai konna kimochi mo
hajiketobu hodo waraiaeta hi mo
F#m A7
taisetsu ni sodatete ikeru you ni
D E
honno sukoshi otona ni natteku
C#m F#m
kimi ni naritai boku o koete
Bm A E
tsunagatte yuke
Bm A E
ima sugu kimi ni
D7M
todoke

Top cifras de Tanizawa Tomofumi

  1. Kimi Ni Todoke

Pela Web