Cifras Web
The 5.6.7.8's

Woo Hoo Intro

The 5.6.7.8's

9 acessos

Tabbed by:BubbaxD
Email:*

Tuning:standard


e|-------------------------------------------------------------------------|
B|-------------------------------------------------------------------------|
G|-------------------------------------------0-2-3-2-0---------------------|
D|----------0-2-3-2-0--------0-2-3-2-0-----2-----------2-----0-2-3-2-0-----|
A|--------2------------2---2-----------2-3-----------------2-----------2---|
E|------3----------------3-------------------------------3-----------------|



e|-------------------------------------------2-----------------------------|
B|-------------------------------------------3-----------------------------|
G|----------2-4--------0-2-------------------2-----------------------------|
D|------0-4----------2--------------0-2-0----------------------------------|
A|-----------------3-------------2-----------------------------------------|
E|-----------------------------3-------------------------------------------|


Here is the intro tabbed, it also called the Blue shuffle not sure who by
Hope you like



===============================================================================

Top cifras de The 5.6.7.8's

  1. Woo Hoo
  2. Woo Hoo Intro
  3. Highschool Witch

Pela Web