Cifras Web
The Cure

Boys Dont Cry Intro

The Cure

25 acessos

(intro)


E|---------------------------------2-4-5---2--------------------|
B|-2-2---2-3-5---2-2---2-3-5-5-5-------------5-3-2--------------|
G|--------------------------------------------------------------|
D|--------------------------------------------------------------|
A|--------------------------------------------------------------|
E|--------------------------------------------------------------|



                            FINAL

PENÚLTIMA VEZ



E|---------------------------------2-4-5---2--------------------|
B|-2-2---2-3-5---2-2---2-3-5-5-5-------------5-3-2--------------|
G|--------------------------------------------------------------|
D|--------------------------------------------------------------|
A|--------------------------------------------------------------|
E|--------------------------------------------------------------|



ÚLTIMA VEZ



E|---------------------------------2-4-5---2-2-2----------------|
B|-2-2---2-3-5---2-2---2-3-5-5-5-----------------5-3-2----------|
G|--------------------------------------------------------------|
D|--------------------------------------------------------------|
A|--------------------------------------------------------------|
E|--------------------------------------------------------------|

TOP cifras de The Cure

  1. In Between Days
  2. Just Like Heaven
  3. Killing An Arab
  4. Lovesong
  5. The Blood
  6. Push
  7. The Caterpillar
  8. A Night Like This
  9. 10-15 Saturday Night
  10. Boys Don't Cry

Pela Web