Cifras Web
Tony Pessoa

Meiga Senhorita

Tony Pessoa

39 acessos


E |--2---3--5--7-7-7-7---8-7-5-3-2-3-2---2-3-5----------|
B |----3------------------------------------------------|
G |-----------------------------------------------------|



E |--2---3--5--7-7-7-7---8-7-5-3-2-3-2---2-3-5----3-5-3-2------|
B |----3-------------------------------------------------------|
G |------------------------------------------------------------|


(solo 2x) ( D C G )

D A G D
Minha meiga senhorita eu nunca pude lhe dizer
A
Você jamais me perguntou
C G D
de onde eu venho e pra onde vou
A G D
De onde eu venho não importa, já passou
A G D C G D
O que importa é saber pra onde vou

A G D
Minha meiga senhorita o que eu tenho é quase nada
A
Mas tenho o sol como amigo
C G D
Traz o que é seu e vem morar comigo
A G D
Uma palhoça no canto da serra será nosso abrigo
A G D
Traz o que é seu e vem correndo, vem morar comigo

A G
Aqui é pequeno mas dá pra nós dois
D
E se for preciso a gente aumenta depois
A G
Tem um violão que é pra noites de lua
D
Tem uma varanda que é minha e que é sua
A G
Vem morar comigo meiga senhorita
D A G
Vem morar comigo Oh Oh Oh...
D
Vem morar comigo


E |--2---3--5--7-7-7-7---8-7-5-3-2-3-2---2-3-5----------|
B |----3------------------------------------------------|
G |-----------------------------------------------------|


E |--2---3--5--7-7-7-7---8-7-5-3-2-3-2---2-3-5----3-5-3-2------|
B |----3-------------------------------------------------------|
G |------------------------------------------------------------|

Top cifras de Tony Pessoa

  1. Meiga Senhorita
  2. Que Saudade de Você

Pela Web