Cifras Web
Udr

Orgia de Traveco

Udr

5.163 acessos


E|-------------------------------------------------------------
G|-------------------------------------------------------------
B|-------------------------------------------------------------
D|-------------------------------------------------------------
A|-------5-0-2-2--2-0-0---0-2-2--2-0-0---0--2-2-0-0------------
E|-0-0-3----------------3--------------3------------3-3-2-2-0-0



E|-------------------------------------------------------------
G|-------------------------------------------------------------
B|-------------------------------------------------------------
D|-------------------------------------------------------------
A|-------5-0-2---2-0-0---0-2---2-0-0---0--2-2-0-0--------------
E|-0-0-3---------------3-------------3------------3-3-2-2-0-0--

TOP cifras de Udr

  1. Orgia de Traveco
  2. Oh, Mefisto
  3. Rock n' Roll Anticósmico da Morte
  4. Bonde da Orgia de Travecos
  5. Oh Mephisto

Pela Web