Van Hunt

Dust Intro

Van Hunt

   Tab: Lex Poindexter

These are the opening guitar licks.


E-----------------------------------------------------------|
B-----------------------------------------------------------|
G--------------------------------------------2--------------|
D--------------------------------0--4~~--2-4---4-2--0-2-----|
A--4~~---2-4--4/5\4--2h4p2-0--2-------------------------4~~-|
E-----------------------------------------------------------|



E----------------------------------------------------------|
B----------------------------------------------------------|
G----------------------------------------------------------|
D------2/4\2--2h4-------------2/4~~------------------------|
A--2-4------------4--2--2h4-0------------------------------|
E----------------------------------------------------------|


I'm pretty sure it's 100% correct.

One
Lex

Curte essa cifra? Compartilhe com seus amigos:


Pela Web

Deixe seu comentário