Cifras Web
Walls Of Jericho

Jaded

Walls Of Jericho

7 acessos


[-----------------------------------------------------------]
[-----------------------------------------------------------]
[-----------------------------------------------------------]
[------------------------------4-4--x--6-6--x--4-4--x--6-6--]
[--5-5--5-5-----5-5--5-5-------2-2--x--4-4--x--2-2--x--4-4--]
[--5-5--5-5-x-x-5-5--5-5--x-x-------------------------------]



[-----------------------------------------------]
[-----------------------------------------------]
[-----------------------------------------------]
[-----------------------------------------------]
[-x----3----3~~---------------------------------]
[-x----3----3~~---------------------------------]



[-----------------------------------------------------------]
[-----------------------------------------------------------]
[-----------------------------------------------------------]
[------------------------------4-4--x--6-6--x--4-4--x--6-6--]
[--5-5--5-5-----5-5--5-5--------2-2--x--4-4--x--2-2--x--4-4-]
[--5-5--5-5-x-x-5-5--5-5--x-x-------------------------------]



[--------------------------------------]
[--------------------------------------]
[--------------------------------------]
[-4-4---6-6---4-4---6-6----------------]
[-2-2-x-4-4-x-2-2-x-4-4---3~~----------]
[-------------------------3~~----------]



[--------------------------------------]
[--------------------------------------]
[--------------------------------------]
[--------------------------------------]
[--6-4-6-3~~---------------------------]
[--6-4-6-3~~---------------------------]



[----------------------------------------]
[----------------------------------------]
[----------------------------------------]
[----------------------------------------]
[--6-4-6---3-3-3-3-3-3-3-3---------------]
[--6-4-6---3-3-3-3-3-3-3-3---------------]




[--------------------------------------]
[--------------------------------------]
[--------------------------------------]
[--------------------------------------]
[--6-4-6-3~~---------------------------]
[--6-4-6-3~~---------------------------]



[--------------------------------------------]
[--------------------------------------------]
[--------------------------------------------]
[----------11-10----10-----------------------]
[----9-8---------11------3-3-3-3-3-3-3-3-----]
[--9-----9---------------3-3-3-3-3-3-3-3-----]



[--------------------------------------------]
[--------------------------------------------]
[--------------------------------------------]
[----------11-10----10-----------------------]
[----9-8---------11------3-3-3-3-3-9~~~------]
[--9-----9---------------3-3-3-3-3-----------]


[------------------------------------------]
[------------------------------------------]
[------------------------------5*----------]
[------------------------------------------]
[--3---3-3---3-3-3---3-3-------------------]
[--3---3-3---3-3-3---3-3-------------------]


Top cifras de Walls Of Jericho

  1. No Saving Me
  2. A Little Piece Of Me
  3. Theres No I In Fuck You
  4. Ember Drive (intro)
  5. House Of The Rising Sun
  6. Jaded
  7. A Trigger Full Of Promisses
  8. Little Piece Of Me
  9. Trigger Full Of Promises

Pela Web