Cifras Web
Wes Montgomery

Goin On To Detroit

Wes Montgomery

3 acessos

Lead Guitar



     G                                                                 

E||--------------------|----------8----------|------------------------|
B||-------8------------|---------------------|------------------------|
G||--7-----------------|----------5------10--|------9----7------------|
D||-------5------------|---------------------|------------------------|
A||--5-----------------|-----------------8---|------7----5------------|
E||--------------------|---------------------|------------------------|



                     Gm7                             Gm6     

------------------|---------------------|------------8------|
------------------|-----8--8------------|-------------------|
------------------|--7------------------|------------5------|
------------------|-----5--5------------|-------------------|
------------------|--5------------------|-------------------|
------------------|---------------------|-------------------|



  G                                Cm7  F13/9-    Bm    Em            Am  

--------------------------|--------------------|----------------12-------|
--------------------------|-------------8------|--12----15---------------|
--10----9----7------------|--------8-----------|----------------9-----9--|
--------------------------|-------------5------|--9-----12---------------|
--8-----7----5------------|--------6-----------|----------------------7--|
--------------------------|--------------------|-------------------------|



               D     C        Bm    Em            Am  

---------------------------|----------------12-------|
---------------------------|--------15---------------|
----12--12--9--12----14/---|--16------------9-----9--|
---------------------------|--------12---------------|
----10--10--7--10----12/---|--14------------------7--|
---------------------------|-------------------------|



               D     C        Bm    Em                

---------------------------|----------------12-------|
---------------------------|--------15------------8--|
----12--12--9--12----14/---|--16------------9--------|
---------------------------|--------12------------5--|
----10--10--7--10----12/---|--14---------------------|
---------------------------|-------------------------|



                            Em                 A7                 Em  

----10-------------------|------------------|------------------------|
----11-------------------|------------------|------10----8-----------|
------------12--9--7--9--|------------------|---------------9--7--9--|
-------------------------|------------------|------7-----5-----------|
------------10--7--5--7--|------------------|---------------7--5--7--|
-------------------------|------------------|------------------------|



                     A7         G#7       G                   

------------------|--------------------|---------------------|
------------------|--------------------|-------8--8----------|
------------------|--------9----8------|--7------------------|
------------------|--------------------|---------------------|
------------------|--------7----6------|---------------------|
------------------|--------------------|---------------------|



                                                       

----------------------|-------------------------------|
-----------8----10----|---------------------------10--|
--------7-------------|--10----9----7------7--10------|
----------------------|---------------------------7---|
----------------------|--------------------5--8-------|
----------------------|-------------------------------|



                              Gm                                         

--8----8----8--------------|---------------------|----------------------|
---------------10----------|-------8--8----------|-----------8----10----|
--5----5----5------10--10--|--7------------------|--------7-------------|
---------------7-----------|---------------------|----------------------|
-------------------8---8---|---------------------|----------------------|
---------------------------|---------------------|----------------------|



  G                            Cm7  F13/9-    Bm    Em            Am  

----------------------|--------------------|----------------12-------|
----------------------|-------------8------|--12----15---------------|
--10--9--7------------|--------8-----------|----------------9-----9--|
----------------------|-------------5------|--9-----12---------------|
----------------------|--------6-----------|----------------------7--|
----------------------|--------------------|-------------------------|



               D     C        Bm    Em            Am  

---------------------------|----------------12-------|
---------------------------|--------15---------------|
----12--12--9--12----14/---|--16------------9-----9--|
---------------------------|--------12---------------|
----10--10--7--10----12/---|--14------------------7--|
---------------------------|-------------------------|



               D     C        Bm    Em                

---------------------------|----------------12-------|
---------------------------|--------15------------8--|
----12--12--9--12----14----|--16------------9--------|
---------------------------|--------12------------5--|
----10--10--7--10----12----|--14---------------------|
---------------------------|-------------------------|



                            Em                 A7                 Em  

----10-------------------|------------------|------------------------|
----11-------------------|------------------|------10----8-----------|
------------12--9--7--9--|------------------|---------------9--7--9--|
-------------------------|------------------|------7-----5-----------|
------------10--7--5--7--|------------------|---------------7--5--7--|
-------------------------|------------------|------------------------|



                     A7      G#7        G                    

------------------|------------------|--10--------------10--|
------------------|------------------|----------------------|
------------------|------------------|--7---------------7---|
------------------|------------------|----------------------|
------------------|------------------|----------------------|
------------------|------------------|----------------------|



                                                                       

--10--------12---------|-----------------------|------------10----10--|
------------------8----|--------10-------------|----------------------|
--7---------9----------|--10--------7----------|------------7-----7---|
------------------5----|--------7--------------|----------------------|
-----------------------|--8---------5----------|----------------------|
-----------------------|-----------------------|----------------------|



  Gm                                                 

----10----10----9----10--|--------------10----10----|
-------------------------|-------8--11--------------|
----7-----7-----6----7---|----7---------7-----7-----|
-------------------------|-------5--8---------------|
-------------------------|----5---------------------|
-------------------------|--------------------------|



  G                                Cm7              Bm        Em           

------------------------|--------------------10--|--------------14--10----|
--10--------------------|-------------8--10------|------------------------|
--------10----9----7----|----------8---------7---|----11--------11--7-----|
--7---------------------|-------------5--7-------|------------------------|
--------8-----7----5----|----------6-------------|----9-------------------|
------------------------|------------------------|------------------------|



  Am         D             Bm         Em          

------------------------|---------------7--10----|
----12--8----10------8--|--7---------------------|
------------------------|-----7---------4--7-----|
----9---5----7-------5--|--4-----9---------------|
------------------------|-----5------------------|
------------------------|--------7---------------|



  Am            D                 Bm                          

----14-------------------------|-----------------------------|
--------12--15------12-----10--|-----------------------------|
----11----------12------9------|--11----11-------------------|
--------9---12------9------7---|------------12----12--9--10--|
----------------10------7------|--9-----9--------------------|
-------------------------------|------------10----10--7--8---|



  Am         B7            Em                     

------------------------|------------------------|
------------------------|------------------------|
----9--12----11---------|------------------------|
-------------------9/---|--14------14------14----|
----7--10----9----------|------------------------|
-------------------7/---|--12------12------12----|



  A7                          Em                   

----12------10-------------|----------------------|
----------------12/-10--8--|----------------------|
----9-------7--------------|--9----9----9----9----|
----------------9/--7---5--|----------------------|
---------------------------|--7----7----7----7----|
---------------------------|----------------------|



  A7                         G                     

--------------------------|-----------------------|
--------------------------|-----------------------|
--9----9----9--12--9--12--|------9--12--9---------|
--------------------------|------------------5----|
--7----7----7--10--7--10--|------7--10--7---------|
--------------------------|------------------3----|



                                                   

----------------10--7-----|-----------------------|
-------8-----8---------8--|----8------------------|
----9-----9-----7---4-----|-------9----7----------|
-------5-----5---------5--|----5----------8--7----|
----7-----7---------------|-------7----5----------|
--------------------------|---------------6--5----|



                               Gm                               

------------------------12--|--15----15----15----15----15--13--|
----------------10--13------|----------------------------------|
------7--9--10----------9---|--12----12----12----12----12--10--|
----------------7---10------|----------------------------------|
------5--7--8---------------|----------------------------------|
----------------------------|----------------------------------|



                                  G                          

------12----10----8------------|----------------------------|
-----------------------11------|--10------------------------|
------9-----7-----5--------10--|--------10--9--7--6----7----|
-----------------------8-------|--7-------------------------|
---------------------------8---|--------8---7--5--4----5----|
-------------------------------|----------------------------|



           Cm            Bm          Em                 

--------8-------------|-----------7--10----14----10----|
----------------------|--------7-----------------------|
--------5----8--7--5--|--4--7-----4--7-----11----7-----|
----------------------|--------4-----------------------|
-------------6--5--3--|--2--5--------------------------|
----------------------|--------------------------------|



  Am         D             Bm          Em               

------7--10--10---------|-----------7--10--14--10------|
------------------------|--------7-----------------12--|
------4--7---7-----9----|--4--7-----4--7---11--7-------|
------------------------|--------4-----------------9---|
-------------------7----|--2--5------------------------|
------------------------|------------------------------|



  Am          D            Bm                      Am            B7     

------------------------|----10---------7-------|----------------------|
-------8--10----8----7--|----------7---------5--|----8----7------------|
----9-------------------|----7----------4-------|----------------4--7--|
-------5--7-----5----4--|----------4---------2--|----5----4------------|
----7-------------------|-----------------------|----------------2--5--|
------------------------|-----------------------|----------------------|



  Em                      A7                       Em                     

-----------------------|------------------------|------------------------|
-----------------------|------------------------|------------------------|
--9----9--9----9--9----|----9--9----9--9--9--9--|--9----9--9----9--9--9--|
-----------------------|------------------------|------------------------|
--7----7--7----7--7----|----7--7----7--7--7--7--|--7----7--7----7--7--7--|
-----------------------|------------------------|------------------------|



  A7                  G                                        

-------------------|--------------------|----------8----------|
-------------------|-------8------------|---------------------|
----9--------------|--7-----------------|----------5------10--|
-------------------|-------5------------|---------------------|
----7--------------|--5-----------------|-----------------8---|
-------------------|--------------------|---------------------|



                                              Gm7                 

------------------------|------------------|---------------------|
------------------------|------------------|-----8--8------------|
------9----7------------|------------------|--7------------------|
------------------------|------------------|-----5--5------------|
------7----5------------|------------------|--5------------------|
------------------------|------------------|---------------------|



            Gm6       G                                Cm7  F13/9-  

------------8------|--------------------------|--------------------|
-------------------|--------------------------|-------------8------|
------------5------|--10----9----7------------|--------8-----------|
-------------------|--------------------------|-------------5------|
-------------------|--8-----7----5------------|--------6-----------|
-------------------|--------------------------|--------------------|



  Bm    Em            Am                 D     C      

----------------12-------|---------------------------|
--12----15---------------|---------------------------|
----------------9-----9--|----12--12--9--12----14/---|
--9-----12---------------|---------------------------|
----------------------7--|----10--10--7--10----12/---|
-------------------------|---------------------------|



  Bm    Em            Am                 D     C      

----------------12-------|---------------------------|
--------15---------------|---------------------------|
--16------------9-----9--|----12--12--9--12----14/---|
--------12---------------|---------------------------|
--14------------------7--|----10--10--7--10----12/---|
-------------------------|---------------------------|



  Bm    Em                                            Em               

----------------12-------|----10-------------------|------------------|
--------15------------8--|----11-------------------|------------------|
--16------------9--------|------------12--9--7--9--|------------------|
--------12------------5--|-------------------------|------------------|
--14---------------------|------------10--7--5--7--|------------------|
-------------------------|-------------------------|------------------|



  A7                         Em                   A7                      

---------------------7/---|--------------------|----12-------------------|
----10--8-----10--8-------|--------------------|----------------11/10--8-|
-----------9---------4/---|--9----9------------|----9--------------------|
----7---5-----7---5-------|--------------------|----------------8/-7---5-|
-----------7--------------|--7----7------------|-------------------------|
--------------------------|--------------------|-------------------------|



  Em                         A7                      

--------------------------|----12------12-----------|
----------------8--10-----|------------------10---8-|
--9--9----9--9---------9--|----9-------9------------|
----------------5--7------|------------------7----5-|
--7--7----7--7---------7--|-------------------------|
--------------------------|-------------------------|



  Em                         A7                       

--------------------------|----12----12----12----12--|
--------8--10-------8-----|--------------------------|
--9--9---------9-------9--|----9-----9-----9-----9---|
--------5--7--------5-----|--------------------------|
--7--7---------7-------7--|--------------------------|
--------------------------|--------------------------|



    Em                            A7                        

|---12--9------------------12--|----9------------------12--|
|----------10------------------|-------10------------------|
|*--9---6------9--12----9--9---|----6------9--12----9--9---|
|*---------7-------------------|-------7-------------------|
|--------------7--10----7------|-----------7--10----7------|
|------------------------------|---------------------------|



  Em                                                    4x
----9------------------12--|----9------------------12---||
-------10------------------|-------10-------------------||
----6------9--12----9--9---|----6------9--12----9--9---*||
-------7-------------------|-------7-------------------*||
-----------7--10----7------|-----------7--10----7-------||
---------------------------|----------------------------||



TOP cifras de Wes Montgomery

  1. Satin Doll
  2. Shadow Of Your Smile
  3. Billies Bounce
  4. Call Me
  5. Fly Me To The Moon
  6. Impressions
  7. In Your Own Sweet Way
  8. Ive Grown Accustomed To Her Face
  9. Midnight Mood
  10. Polka Dots And Moonbeams

Pela Web