Cifras Web
Wes Montgomery

Round Midnight

Wes Montgomery

7 acessos

#

Date: Sun, 04 Feb 96 20:12:58 -0800
From: roland kalus 

Transribed by Roland Kalus


Intro


------------------------4--------------------------5-sl-6--9-7-6-5-------|
-------------2--4-/-6----6-4-6-------------------7------------------6-5--|
----------3------------------------------------8-------------------------|
----3--4----------------------------5-6-8-/-9----------------------------|
-------------------------------------------------------------------------|
-------------------------------------------------------------------------|




--------------------------------------------------------------------------|
------------------6/7-5/4----------------------------2/3/2----------------|
-7-6--4-3-----------------5/6-2/3---------------------------6-4-3---------|
----------6-4---------------------4----3--------------------------6-4-3---|
--------------4----------------------6-------3----3---------------------6-|
------------------------------------------6-----6-------------------------|


* (A-SECTION)


|--------------------------------------------------------------------------|
|-*------------------------------------------------------------------------|
|-------------------------------7/8-------3--------------------6---8--5----|
|-*----------8----------------------6--4-----4--6------------6---8---------|
|-----6--8-----8/9---6-5-6-5-6--------------------------6--9---------------|
|---6-------------------------------------------------6--------------------|


                                                     
||1...................
-----------------------------------------------------||----------------7/8-|
---------------------------------------7--6---------*||----------7--10-----|
-------7-----------6-----------------8-------10-/4/3-||------6-9-----------|
----7----7-6-----6---6-5-------6--9-----------------*||----7---------------|
--8------------7-------------6-----------------------||-/9-----------------|


-----------------------------------------------------||--------------------|


.........................................................................|

/7------------------------------------------------------------------------|
---10-7--------------------------------------7--9/10-9-7------------------|
--------9-6-------------------------------8--------------8----------------|
-------------9--7--9-8-9----7-8-7-8-----8------------------8--6-4---------|
--------------------------9---------------------------------------6-4-6---|
--------------------------------------------------------------------------|



2..........................................................................|

---------------------------------------------------------------------------|
-----------------------------7---------------------------------------------|
------------------------6/7------7-6--4-3------------3---------------------|
--3-4-6--7/8--7/8--6--9---------------------6--4/5-------------------------|
---------------------------------------------------------------------------|
--------------------------------------------------------6------------------|



--------------------------------------|------------------------------------|
--------------------------------------|---4--6--/7-/7---6-7-9-7-6-4-6-6----|
--------THIS IS THE B-SECTION---------|---------------------------------3--|
--------------------------------------|---1--3--/4-/4---3-4-6-4-3-1-3-3----|
--------------------------------------|---------------------------------1--|
--------------------------------------|------------------------------------|




-----------------------------------------------------------11---------------|
-4--6--/7-/7---6-7-9-7-6-4-6---------------11--12--12--12-------------------|
-------------------------------3---5--6--------------------8----10--10--10--|
-1--3--/4-/4---3-4-6-4-3-1-3---------------8---9---9---9--------------------|
-------------------------------1---3--4-------------------------8---8---8---|
----------------------------------------------------------------------------|




-9-------------9--------------------11----------------10--------------9------|
----11-11-11------/9--------9--12-------------8---11---------7---10----------|
-6-------------6------8-------------8---10------------7---8-----------6------|
----8--8--8-------/6--------6--9--------------5---8----------4---7-----------|
----------------------6-----------------8-----------------6------------------|
-----------------------------------------------------------------------------|



---------------------------6-----|
-13---10---7---------------6-----|
---------------8--7--------10----|
-10---7----4---------------8-----|
---------------6--5--------5-----|
-----------------------6---------|


I have not tabbed the barlines (You can do something by yourself  :-) ).
There may be some mistakes in this transcription (nobody is perfect except
Mr. 7 seconds, so mail me..). Have fun with it and mail me if you have some
Jazz Transcription too.. (*)


---------------------------------17870526911902--

TOP cifras de Wes Montgomery

  1. Satin Doll
  2. Shadow Of Your Smile
  3. Billies Bounce
  4. Call Me
  5. Fly Me To The Moon
  6. Impressions
  7. In Your Own Sweet Way
  8. Ive Grown Accustomed To Her Face
  9. Midnight Mood
  10. Polka Dots And Moonbeams

Pela Web