Cifras Web
Wolf Parade

Dear Sons And Daughters Of Hungry Ghosts

Wolf Parade

8 acessos

From: Apologies to the Queen Mary
Tabbed by: Dave
E-mail: *

This should be accurate but I'm unsure of some of the verse stuff. Feel free to e-mail 
with questions/comments.

Intro (Synth converted to guitar):

e|--------------------------------------|----------------------------------|
B|--------------------------------------|----------------------------------|
G|--10-10-10-10-9-9-9-9-7-7-7-7-7-7-5-5-|-3-3-3-3-2-2-2-2------------------|
D|--------------7-7-7-7-----------------|-3-3-3-3---------7-7-7-7-5-5-5-5--|
A|--8--8--8--8----------8-8-8-8-7-7-7-7-|---------3-3-3-3-0-0-0-0-3-3-3-3--|
E|--------------------------------------|----------------------------------|


Verse:

e|-----------------------------------|-------------8------------------|
B|----6-------10---------6---------5-|---6---------------8---------5--|
G|------5--------9---------3-----5---|-----5-----9---------7-----5----|
D|--3-------7----------3-------7-----|-3-------7-------5-------5------|
A|-----------------------------------|--------------------------------|
E|-----------------------------------|--------------------------------|

Repeat X 2 then:


e|----------------------------|
B|----------------------------|
G|--10--10--2--2--7--7--5--5--|
D|--10--10--2--2--7--7--5--5--|
A|--8---8---0--0--5--5--3--3--|
E|----------------------------|
Play around with those chords for another 2 bars then we're at the "Rust set just right 

the light..." part:


e|----------------------------------------------------|
B|----------------------------------------------------|
G|--10--10--2--2--7--7--5--5--3--3--5--5--2--2--5--5--|
D|--10--10--2--2--7--7--5--5--3--3--5--5--2--2--5--5--|
A|--8---8---0--0--5--5--3--3--1--1--3--3--0--0--3--3--|
E|----------------------------------------------------|



e|---------------------------------|---------------------------------|
B|----6---------10-----8---------6-|---6---------10-----8---------6--|
G|------5-----9----------5-----3---|-----5-----9----------5-----3----|
D|--3-------7--------5-------3-----|-3-------7--------5-------3------|
A|---------------------------------|---------------------------------|
E|---------------------------------|---------------------------------|


Bridge:

e|----------------------------------------|
B|----------------------------------------|
G|-----7----------------------------------|
D|--10---10-9-7---------------------------|
A|--------------7---5/7-5-3h5--5/7-5---3--|
E|-----------------------------------5----|

Repeat 8x

Then this:

e|------------------------------------|
B|------------------------------------|
G|----10--------2--------7-------5----|
D|-------10-------2--------7-------5--|
A|--8---------0--------5-------3------|
E|------------------------------------|
Repeat 2x


Outro Verse:


e|----------------------------------------------------|
B|----------------------------------------------------|
G|--10--10--2--2--7--7--5--5--3--3--5--5--2--2--5--5--|
D|--10--10--2--2--7--7--5--5--3--3--5--5--2--2--5--5--|
A|--8---8---0--0--5--5--3--3--1--1--3--3--0--0--3--3--|
E|----------------------------------------------------|

Repeat x4, but Dan variates the pattern, picks single notes from the chords, etc.

Then play this:

e|---------------------------------------------------------------------|
B|----6-------10-------3---------------11----------------10------------|
G|------5--------9-------2-----5----------10-------5--------9-----5----|
D|--3-------7--------0-----------5---8-----------5-----7------------5--|
A|---------------------------3-----------------3----------------3------|
E|---------------------------------------------------------------------|


Then the outro is this twice:


e|----------------------------------------|
B|----------------------------------------|
G|-----7----------------------------------|
D|--10---10-9-7---------------------------|
A|--------------7---5/7-5-3h5--5/7-5---3--|
E|-----------------------------------5----|


Followed by:

e|--3--|
B|--5--|
G|--5--|
D|--5--|
A|--3--|
E|-----|

Top cifras de Wolf Parade

  1. Dear Sons And Daughters Of Hungry Ghosts
  2. Grounds For Divorce
  3. Its A Curse
  4. Modern World Solo
  5. Same Ghost Every Night
  6. Ill Believe In Anything
  7. Shine A Light
  8. Modern World

Pela Web