Cifras Web
Woods Of Ypres

Looming Of Dust In The Dark

Woods Of Ypres

6 acessos

TUNING: C# Standard (Down a Step and a Half)
Tab by: Brodie Widdifield
Date: July 6th

RIFF 1
Let Ring

C#------------------0----------|
G#--------------0h1---1--------|
E---------0-------------0------|
B-------2---2-------------2----|  x12
F#----2-------2----------------|
C#--0--------------------------|


RIFF 2

C#------------------0--------------------------------|
G#--------1-----0h1---1-----------1------------------|
E-------0---0-----------0-------0---0---7-7-7-7-7-7--|
B-----2-------2-----------2---2-------2-7-7-7-7-7-7--|
F#--3-----------------------3-----------5-5-5-5-5-5--|
C#---------------------------------------------------|


RIFF 1 x2
Riff 2
Riff 1 x2

This riff is first played on just the bass

"As my eyes come into focus..."

C#----------------------------------------------------------|
G#----------------------------------------------------------|
E---9-9-9-9-9-9-9-9-9-9-9-9-9-9-9-9-7-7-7-7-7-7-7-7-7-7-7-4-|
B---9-9-9-9-9-9-9-9-9-9-9-9-9-9-9-9-7-7-7-7-7-7-7-7-7-7-7-4-|
F#--7-7-7-7-7-7-7-7-7-7-7-7-7-7-7-7-5-5-5-5-5-5-5-5-5-5-5-2-|
C#----------------------------------------------------------|



C#-----------------------------------------------------|
G#-----------------------------------------------------|
E---4/5-5-5-5-5-5-5-5-5-5-5-5-5-5-5-5-5-5-7-7-7-7-7-7--|
B---4/5-5-5-5-5-5-5-5-5-5-5-5-5-5-5-5-5-5-7-7-7-7-7-7--| x6
F#--2/3-3-3-3-3-3-3-3-3-3-3-3-5-3-3-3-3-3-5-5-5-5-5-5--|
C#-----------------------------------------------------|


RIFF 1 x6

And thats it. Not too tough at all.

Top cifras de Woods Of Ypres

  1. Sun Was In My Eyes Solo
  2. Looming Of Dust In The Dark
  3. Northern Cold Intro

Pela Web