Cifras Web
Xink

Sorry

Xink

9 acessos

Intro

E|--7-5--|------|------|-3?-3-3-3-7--5--|
B|-------|-7-5?-|-5-3--|----------------|
G|-------|------|------|----------------|
D|-------|------|------|----------------|
A|-------|------|------|----------------|
E|-------|------|------|----------------|


Couplet

E|------------------|-----------------|
B|------------------|-----------------|
G|------------------|-----------------|
D|--7-7-7-7-7-7-7-7-|-----------------|
A|--5-5-5-5-5-5-5-5-|-9-9-9-9-9-9-9-9-|
E|------------------|-7-7-7-7-7-7-7-7?|

Pm  * * * * * * * * * * * * * * * * *-| 


E|------------------|------------------|
B|------------------|------------------|
G|------------------|------------------|
D|------------------|------------------|
A|--7-7-7-7-7-7-7-7-|-5-5-5-5-5-5-5-5--|
E|--5-5-5-5-5-5-5-5-|-3-3-3-3-3-3-3-3--|

Pm  * * * * * * * *   * * * * * * * *

Couplet2

E|------------------|-----------------|
B|------------------|-----------------|
G|------------------|-----------------|
D|--7-7-7-7-7-7-7-7-|-----------------|
A|--5-5-5-5-5-5-5-5-|-9-9-9-9-9-9-9-9-|
E|------------------|-7-7-7-7-7-7-7-7-|

Pm  * * * * * * * * * * * * * * * * *-| 

                     

E|------------------|----|
B|------------------|----|
G|------------------|----|
D|------------------|-5--|
A|--7-7-7-7-7-7-7-7-|-5--|
E|--5-5-5-5-5-5-5-5-|-3--|

Pm  * * * * * * * *   

Refrein

E|----------------|----------------|---------------|
B|----------------|----------------|---------------|
G|--7?-7-7?-7-7-7-|----------------|---------------|
D|--7?-7-7?-7-7-7-|-9?-9-9--9-9-9--|-5?-5-5?-5-5-5-|
A|--5?-5-5?-5-5-5-|-9?-9-9?-9-9-9--|-5?-5-5?-5-5-5-|
E|----------------|-7?-7-7?-7-7-7--|-3?-3-3--3-3-3-|




E|-----------------|
B|-----------------|
G|-----------------|
D|--7?-7-7?-7-7-7--|
A|--7?-7-7?-7-7-7--|
E|--5?-5-5--5-5-5--|


Bridge

E|----------------|----------------|
B|----------------|----------------|
G|----------------|----------------|
D|----------------|----------------|
A|--0--0-2?-2-2-2-|-3?-3-5?-5-5-5--|
E|----------------|----------------|


Laatste Akkoord
E|-----|
B|-----|
G|--7--|
D|--7--|
A|--5--|
E|-----|


Volgorde:
8 maten rust
Intro 2x
Couplet 3x
Couplet2 1x
Refrein 2x
Intro 1x
Couplet 3x
Couplet2 1x
Refrein 2x
Bridge 4x
Refrein 2x
Intro 1x
Couplet 2x(2e keer met het laatste akkoord)

TOP cifras de Xink

  1. Laat Me Vrij
  2. Sorry
  3. Oh-ho

Pela Web