Cifras Web
Zezé Di Camargo e Luciano

A Ferro e Fogo

Zezé Di Camargo e Luciano

128 acessos

(refrão)
E                      F#m
  A ferro e fogo não dá
                                      A
Com tanta indiferença vendo a vida passar
                                   E       A E
Tropeços e tropeços, pedras no meu caminho
                    F#m
Foi só um jogo de azar
                                  A
Palavras e palavras se perderam no ar
                  B7
Tão perto dos seus olhos
                E         A C#m B7
Longe dos seus carinhos

(parte 2)
                  E    E4 E
Por Deus, tudo acabou!
              F#m
Eu já não aguentava mais
                A
Viver como eu vivi
                B7
Sofrer como eu sofri
                 E    A B7
Foi longe até demais
                E
Sozinho vai ser bem melhor
            F#m
Pra que remediar o fim?
              A                   B7
É bem melhor perder, se nada faz doer
                  E      E4  E
Como está doendo em mim

E                      F#m
 A ferro e fogo não dá
                                      A
Com tanta indiferença vendo a vida passar
                                   E       A E
Tropeços e tropeços, pedras no meu caminho
                    F#m
Foi só um jogo de azar
                                  A
Palavras e palavras se perderam no ar
                  B7
Tão perto dos seus olhos
                E         A C#m B7
Longe dos seus carinhos

(solo)

E |---------7--------------|-----------------------|-------------------------|
B |-----7b9---7b9---9p7----|--7---9----------------|--7---9--9b10---12b14-10-|
G |---------------------9--|----------6~-------6-9-|-------------------------|
D |------------------------|-----------------------|-------------------------|
A |------------------------|-----------------------|-------------------------|
E |------------------------|-----------------------|-------------------------|



-----------xs14--11----------------|--11---12---9~----------------12-|
--12~---------------12--9---------|------------------------12-14----|
---------------------------11--8--|------------------13-14----------|
----------------------------------|---------------------------------|
----------------------------------|---------------------------------|
----------------------------------|---------------------------------|



-14b16-14---14--------12-14-|--15-14--12--10--------------------|
-------16---14--------------|-----------------12--10--------10--|
----------------------------|-------------------------11--9-----|
----------------------------|-----------------------------------|
----------------------------|-----------------------------------|
----------------------------|-----------------------------------|



---------------------------------------------16-|-17b19~-------------||
--12~-------------------------------14-16-17----|--------------------||
---------------------------13-14-16-------------|--------------------||
------------------13-14-16----------------------|--------------------||
------------14-16-------------------------------|--------------------||
------------------------------------------------|--------------------||

~ = vibrato
b = bend
p = pull-off
xs = slide de nenhum lugar para casa seguinte

(repete parte 2)
(refrão 2x)

TOP cifras de Zezé Di Camargo e Luciano

  1. Voando Sem Asas
  2. Pra Mudar Minha Vida
  3. Se For Pra Judiar
  4. A gente fica sem se amar
  5. Indiferença
  6. A Ferro e Fogo
  7. Eu Só Penso Em Você
  8. Na hora H
  9. Flores em Vida
  10. Dou A Vida Por Um Beijo

Pela Web