Cifras Web
A Taste Of Honey

Boogie Oggie Oggie

A Taste Of Honey

14 acessos

Intro Bass
G|-----5-7-9h10--12-10-9--7-------5-7-9h10--12-14--17,18,19----------|
D|--5h7---------0-----0--0-7---5h7---------0------0--------19--------|
A|-5------------------------0-5------------------------------0-------|
E|-------------------------------------------------------------------|

G|-----5-7-9h10--12-10-9--7-------5-7-9h10--12h14-14-14-12-----------|
D|--5h7---------0-----0--0-7---5h7---------0--------0-----15-14-12---|
A|-5------------------------0-5-----------------------------0--0--12-|
E|-------------------------------------------------------------------|


Verse Part

G|--77-----77--7-6-55-------55--5-6---|
D|------------------------------------|
A|-5--3-5-5--05-4-3--0-3-1-3--03-4----|
E|-------3----------------------------|


Chorus I

G|------------5-5----------------5~ --|
D|---------------5--------------------|
A|-0345----1/3----3-0345-5----023-----|
E|-----543--------------3--543--------|

Chorus II

G|------------5-5---------------------|
D|---------------5------345-7-9-10~ --|
A|-0345----1/3----3-0345--------------|
E|-----543----------------------------|


Bass Solo

G|--77-----77--7-6-55-------55--5-6-77-----77--7-6-55-------5---3h5-|
D|-----------------------------------------------------------2h3----|
A|-5--3-5-5--05-4-3--0-3-1-3--03-4-5--3-5-5--05-4-3--0-3-1-3--------|
E|-------3-------------------------------3--------------------------|


Chorus III
G|-----------5-5----------245-------------5-5-------------5~ -------|
D|--------------5------345---543-------------5----------------------|
A|-0345---1/3----3-0345---------0345---1/3----3-0345-----3----------|
E|-----543--------------------------543-------------543-5-----------|


TOP cifras de A Taste Of Honey

  1. Boogie Oogie Oogie
  2. Boogie Oggie Oggie

Pela Web