Cifras Web
Agridoce

130 Anos

Agridoce

36 acessos

Intro:

E|----------------------------------------------------
B|----------------------------------------------------
G|-----9-----------9-----------9-----------9----------
D|--------6-----------6-----------6-----------6-------
A|--7--------7--7--------7--0--------0--0--------0----
E|----------------------------------------------------

                                             H.N
E|--------------------------------------------13------
B|--------------------------------------------13------
G|-----9-----------9--------------9-------------------
D|--------6-----------6--------6----------------------
A|----------------------------------------------------
E|--9--------9--9--------9--7--------7----------------

Base da musica:

Repita o dedilhado da intro na primeira parte da musica

E|----------------------------------------------------
B|----------------------------------------------------
G|-----9-----------9-----------9-----------9----------
D|--------6-----------6-----------6-----------6-------
A|--7--------7--7--------7--0--------0--0--------0----
E|----------------------------------------------------


E|----------------------------------------------------
B|----------------------------------------------------
G|-----9-----------9--------------9-----------9-------
D|--------6-----------6--------6-----------6----------
A|----------------------------------------------------
E|--9--------9--9--------9--7--------7--7--------7----




Caro é transformar-se num arremedo de si próprio a ponto de nem se reconhecer mais

Hoje eu tenho 130 anos, isso não estava nos meus planos

Você sabe, a desordem é tenaz.

Tantos laços, tantas amarras

Os controles, pretensões

Nada adianta se o vento não soprar

Esse vento sob minhas asas,

Eu não mando mais em nada.

Sei que é alto, mas eu vou pular


Refrão:


    C#m                   C#m

E|----------------------------------------------------
B|-----5-----------5-----------5-----------5----------
G|--------6-----------6-----------6-----------6-------
D|----------------------------------------------------
A|--4--------4--4--------4--3--------3--3---------3---
E|----------------------------------------------------


    C#m                   C#m

E|-----------------------------------------------------
B|-----5-----------5-----------5-----------5-----------
G|--------6-----------6------------6-----------6-------
D|-----------------------------------------------------
A|-----------------------------------------------------
E|--5--------5--5--------5--4---------4--4---------4---

     B

E|-----------------------------------------------------
B|-----7---------7-------------------------------------
G|--------8-------------------------------------------
D|-----------------------------------------------------
A|-----------------------------------------------------
E|--7--------7-----------------------------------------


   O que todos vão dizer

   E aonde vão chegar

   Nem os olhos podem ver


   O que todos vão dizer

   E aonde vão chegar

   Nem os olhos podem ver


Repita o dedilhado da intro na primeira parte da musica

E|----------------------------------------------------
B|----------------------------------------------------
G|-----9-----------9-----------9-----------9----------
D|--------6-----------6-----------6-----------6-------
A|--7--------7--7--------7--0--------0--0--------0----
E|----------------------------------------------------


E|----------------------------------------------------
B|----------------------------------------------------
G|-----9-----------9--------------9-----------9-------
D|--------6-----------6--------6-----------6----------
A|----------------------------------------------------
E|--9--------9--9--------9--7--------7--7--------7----


Decidido, eu não volto pra casa

Ao lar, ao corpo e todas as palavras

Que a vontade, conseguir pensar.

Segue o vento sob minhas asas

Eu não mando mais em nada

Sei que é alto mas eu vou pular

Refrão:


   O que todos vão dizer

   E aonde vão chegar

   Nem os olhos podem ver


   O que todos vão dizer

   E aonde vão chegar

   Nem os olhos podem ver


TOP cifras de Agridoce

  1. 130 Anos
  2. 20 Passos
  3. Upside Down
  4. Say
  5. Rainy
  6. Romeu
  7. Embrace The Devil
  8. Beethoven Blues
  9. O Porto
  10. Dançando

Pela Web