Cifras Web
Akira Kushida

Powerful Fighter

Akira Kushida

9 acessos

Guitar tab & chords by: Gabriel Fox



Intro:
Guitarra Solo:


E|-------------------------|-------------------------|
B|-------------------------|-6-----------------------|
G|-8-8-7-8-7-5-------------|---8-7-8-7-5-------------|
D|-------------------------|-------------------------|
A|-------------------------|-------------------------|
E|-------------------------|-------------------------|



E|-------------------------|-------------------------|
B|-------------------------|-------------------------|
G|-5-5-5-7-8---------------|-5-5-5---5---------------|
D|-------------------------|-------8-----------------|
A|-------------------------|-------------------------|
E|-------------------------|-------------------------|



E|-------------------------|-------------------------|
B|-------------------------|-------------------------|
G|-5-5-5-----5-8-5---------|-------------------------|
D|-------7-8---------------|-------------------------|
A|-------------------------|-------------------------|
E|-------------------------|-------------------------|




C            G
Hikari to iu enerugii
G#             Bb
Tappuri charge shiteiru ze
Eb         C
Oitsumeru! Bakuhatsu da!
Bb 
Seigi no fireball 

G#      Bb      Eb  
Yami no naka ni kirameku
G#      Bb       Eb        F    D 
Metaru tee suizi karada no dainamo 

C            G
Hikare na to shirani sa
G#           Bb
Kurushimi yo motto koi
Eb          F        C
Pawafuru Faita Jaspion 

Solo:
(Duas vezes)

E|-8-10-11-8-10-11-8-------|-13b-13b-11-10-8---------|
B|-------------------------|-------------------------|
G|-------------------------|-------------------------|
D|-------------------------|-------------------------|
A|-------------------------|-------------------------|
E|-------------------------|-------------------------|



E|----8-10----8-10---------|-11b-11b-10-8------------|
B|-11------11------11------|--------------11---------|
G|-------------------------|-------------------------|
D|-------------------------|-------------------------|
A|-------------------------|-------------------------|
E|-------------------------|-------------------------|



E|------8------8-----------|-10-10-8-10-11-10-11-10-~|
B|-9-11---9-11---9---------|-------------------------|
G|-------------------------|-------------------------|
D|-------------------------|-------------------------|
A|-------------------------|-------------------------|
E|-------------------------|-------------------------|


C           G
Kitae muita kono tamashii
G#            Bb
Donna akunimo makenai ze 
Eb            C
Hashike tobu! Tachiagaru! 
Bb              C 
Mou ichido dash da! 

G#    Bb         Eb
Satan Goosu wo kirisaku 
G#   Bb        Eb       F   D
Burezaa Soodo tashikana tegotae 

C       G  G#     Bb
Tatakai ga owatte mou 
C          Bb
Mada moeru kono faito
G#       G          C
Pawafuru Faita Jaspion 

G#      Bb      Eb  
Yami no naka ni kirameku
G#      Bb       Eb        F    D 
Metaru tee suizi karada no dainamo 

C            G
Hikare na to shirani sa
G#           Bb
Kurushimi yo motto koi
Eb          F        C
Pawafuru Faita Jaspion

TOP cifras de Akira Kushida

  1. Kidou Keiji Jiban
  2. Chou Wakusei Sentou Hokan Daileon (Jaspion)
  3. Sekai Ninja Sen Jiraiya
  4. Hoshizora no Messeji
  5. Shinobi 88
  6. Ginga No Taazan
  7. Powerful Fighter
  8. Nefuu Yarou Jaspion

Pela Web