Cifras Web
Allman Brothers Band

Jessica

Allman Brothers Band

15 acessos

/," = slide up, down
q = quarter bend
h = half bend
f = full bend
r = reverse bend
() = hold note
p = pull off
h = hammer on
 

|-----------9--10-|--12--10--9------|-----------------|-----------------|
|--------10-------|-------------10--|-(10)------------|--5--------------|
|------9----------|-----------------|-----9---7p6---7-|-----------------|
|-----------------|-----------------|-----------------|-----------------|


|-----------------|-----------------|-----------------|-----------------|


|-----------------|-----------------|-----------------|-----------------|

 
 

|-----------9--10-|--9h10p9---------|-----------------|-----------------|
|-(5)----10-------|----------10-----|---------------5-|-----------------|
|------9----------|-------------9-7-|--(7)--6---7-----|-----------------|
|-----------------|-----------------|-----------------|--7--------------|
|-----------------|-----------------|-----------------|-----------------|


|-----------------|-----------------|-----------------|-----------------|

 
 

|-----------9--10-|--12--10--9------|-----------------|-----------------|
|--------10-------|-------------10--|-(10)------------|--5--------------|
|------9----------|-----------------|-----9---7p6---7-|-----------------|
|-(7)-------------|-----------------|-----------------|-----------------|
|-----------------|-----------------|-----------------|-----------------|


|-----------------|-----------------|-----------------|-----------------|

 
 

|-----------9--10-|--9h10p9---------|-----------------|-----------------|
|-(5)----10-------|----------10-----|---------------5-|-----------------|
|------9----------|-------------9-7-|--(7)--6---7-----|--2--------------|
|-----------------|-----------------|-----------------|-----------------|


|-----------------|-----------------|-----------------|-----------------|


|-----------------|-----------------|-----------------|-----------------|

 
 

|-----------------|-------2---------|-----------5--7--|
|-----------2--3--|----5---------2--|--5h7p5-7--------|
|--2h4p2-4--------|-----------------|-----------------|
|-----------------|-----------------|-----------------|
|-----------------|-----------------|-----------------|
|-----------------|-----------------|-----------------|

 
 

|-5---------9--10-|--12--10--9------|-----------------|-----------------|
|--------10-------|-------------10--|-(10)------------|--5---h7--p5-----|
|------9----------|-----------------|-----9---7p6---7-|-----------------|
|-----------------|-----------------|-----------------|-----------------|


|-----------------|-----------------|-----------------|-----------------|


|-----------------|-----------------|-----------------|-----------------|

 
 

|-----------9--10-|--9h10p9---------|-----------------|-----------------|
|-(5)----10-------|----------10-----|---------------5-|-----------------|
|------9----------|-------------9-7-|--(7)--6---7-----|-----------------|
|-----------------|-----------------|-----------------|--7--------------|
|-----------------|-----------------|-----------------|-----------------|


|-----------------|-----------------|-----------------|-----------------|

 
 

|-----------9--10-|--12--10--9------|-----------------|-----------------|
|--------10-------|-------------10--|-(10)------------|--5---h7--p5-----|
|------9----------|-----------------|-----9---7p6---7-|-----------------|
|-(7)-------------|-----------------|-----------------|-----------------|
|-----------------|-----------------|-----------------|-----------------|


|-----------------|-----------------|-----------------|-----------------|

 
 

|-----------9--10-|--9h10p9---------|-----------------|-----------------|
|-(5)----10-------|----------10-----|---------------5-|-----------------|
|------9----------|-------------9-7-|--(7)--6---7-----|-----------------|
|-----------------|-----------------|-----------------|--7--------------|
|-----------------|-----------------|-----------------|-----------------|


|-----------------|-----------------|-----------------|-----------------|

 
 

|-----------------|-----------------|-----------------|-----------------|


|-----------------|-----------------|-----------------|-----------------|

|-----------4--5--|----4--------45-|-7----7---7--9-|--6--------------|
|-(7)----7--------|-----------------|-----------------|----------7------|
|-----------------|-----------------|-----------------|--------------7--|

|-----------------|-----------------|-----------------|-----------------|

 
 

|-----------------|-----------------|-----------------|-----------------|


|-----------------|-----------------|-----------------|-----------------|


|-----------------|-----------------|-----------------|-----------------|

|-------------45-|--5--------5--7--|----4------------|-------7---------|
|-(7)------7------|-----------------|----------7--5---|--4--------------|

|-----------------|-----------------|-----------------|-----------------|

 
 

|-----------------|-----------------|-----------------|-----------------|


|-----------------|-----------------|-----------------|-----------------|

|-----------4-5---|-4--------4-5---|--7-------7---9--|---6-------7-----|
|---7-4-5-7-----7-|-----------------|-----------------|-----------------|

|-----------------|-----------------|-----------------|-----------------|


|-----------------|-----------------|-----------------|-----------------|

 
 

|-----------------|-----------------|---------10------|--12---h14-p12---|
|----------7------|--8-------10-----|--12-------------|-----------------|
|--9--------------|-----------------|-----------------|-----------------|
|-----------------|-----------------|-----------------|-----------------|


|-----------------|-----------------|-----------------|-----------------|


|-----------------|-----------------|-----------------|-----------------|

 
 

|-----------9--10-|--12--10--9------|-----------------|-----------------|
|--------10-------|-------------10--|-(10)------------|--5---h7--p5-----|
|------9----------|-----------------|-----9---7p6---7-|-----------------|
|-----------------|-----------------|-----------------|-----------------|


|-----------------|-----------------|-----------------|-----------------|


|-----------------|-----------------|-----------------|-----------------|

 
 

|-----------9--10-|--9h10p9---------|-----------------|-----------------|
|-(5)----10-------|----------10-----|---------------5-|-----------------|
|------9----------|-------------9-7-|--(7)--6---7-----|-----------------|
|-----------------|-----------------|-----------------|--7--------------|
|-----------------|-----------------|-----------------|-----------------|


|-----------------|-----------------|-----------------|-----------------|

 
 

|-----------9--10-|--12--10--9------|-----------------|-----------------|
|--------10-------|-------------10--|-(10)------------|--5---h7--5h7p5--|
|------9----------|-----------------|-----9---7p6---7-|-----------------|
|-(7)-------------|-----------------|-----------------|-----------------|
|-----------------|-----------------|-----------------|-----------------|


|-----------------|-----------------|-----------------|-----------------|

 
 

|---------------9-|-10p9------------|-----------------|-----------------|
|-(5)-------10----|-------10--------|----------5------|-----------------|
|--------9--------|-----------9/7/6-|--7p6--7-----7p6-|-----------------|
|-----------------|-----------------|-----------------|--7-------9------|
|-----------------|-----------------|-----------------|-----------------|


|-----------------|-----------------|-----------------|-----------------|

 
 

|-----------------|-----------------|-----------------|-----------------|

|-----------------|-----------------|-----------------|--12------13-----|
|----------7------|--9-------11-----|--12------14-----|-----------------|
|--10-------------|-----------------|-----------------|-----------------|

|-----------------|-----------------|-----------------|-----------------|


|-----------------|-----------------|-----------------|-----------------|

 
 

|-----------------|-----------------|
|--15------19h----|--17-------------|
|-----------------|-----------------|
|-----------------|-----------------|
|-----------------|-----------------|
|-----------------|-----------------|

 
 
guitar solo:

|-----------------|-----------------|-----------------|------------------|
|-----------------|-----------------|-----------------|------------------|
|-----------------|-----------------|-----------------|------------------|
|-----------------|-----------------|---------4----4--|------------------|
|----------2----2-|-3----3--5--5--5-|-7----7----------|-5--5--5--7--7--7-|
|-5--5--5---------|-----------------|-----------------|------------------|

 
 

|-----------------|---10------------|-10h12-12--(12)f-|-12f-12fr-p10-12-|
|-----------------|-----------------|-----------------|-----------------|

|--4---5---7---9--|-----------------|-----------------|-----------------|

|-----------------|-----------------|-----------------|-----------------|


|-----------------|-----------------|-----------------|-----------------|


|-----------------|-----------------|-----------------|-----------------|

 
 

|--(12)f--12f--r--|--12p10---10--10-|10-----10-12p10--|-10-12-12p10-----|
|-----------------|-----------------|--10-12--------12|-------------10--|
|-----------------|-----------------|-----------------|-----------------|


|-----------------|-----------------|-----------------|-----------------|


|-----------------|-----------------|-----------------|-----------------|


|-----------------|-----------------|-----------------|-----------------|

 
 

|--------------10-|-10---10------10-|-10h12-----10-10-|-10-----10-12-12-|
|-(10)---10-12----|--------10-12----|------10-12------|---10-12---------|
|-----------------|-----------------|-----------------|-----------------|


|-----------------|-----------------|-----------------|-----------------|


|-----------------|-----------------|-----------------|-----------------|


|-----------------|-----------------|-----------------|-----------------|

 
 

|--------10---12f-|-12fr-p10-12-----|10-12p10--10-------|------------------|
|--10-12----------|------------10-12|--------12--12p10--|12--10-12p10--12--|
|-----------------|-----------------|-----------------11|--11--------11--11|
|-----------------|-----------------|-------------------|------------------|
|-----------------|-----------------|-------------------|------------------|
|-----------------|-----------------|-------------------|------------------|

 
 

|-----------------|-----------------|-----------------|-----------------|

|-10--------------|-----------------|-----------------|-----------------|
|---11/9-7----7---|-----------------|-----------------|-----------------|
|---------9-7---9-|-p7-------7-7--7-|-----7-9---9-----|-7-7---7-----7-9-|
|-----------------|----9-7-9--------|-7-9---------7-9-|---------7-9-----|

|-----------------|-----------------|-----------------|-----------------|

 
 

|-----------------|-----------------|-----------------|-----------------|


|-----------------|-----------------|-----------------|-----------------|

|-----7--9--9-----|-----------------|-------------7---|-7-9p7---9---7-9-|
|-(9)-------------|-7-7---7-----7-9-|---9-----7-9---9-|-------9---9-----|
|-------------7-9-|---------7-9-----|-----7-9---------|-----------------|

|-----------------|-----------------|-----------------|-----------------|

 
                                              hold bend ----|

|-----------------|-----------------|-----------------|-----------------|

|-7-8p7---7---7---|--7--8--8--h10--|-10--(10)f---10--|--10-r-10---7h10-|
|-------9---9-----|-----------------|-----------------|-----------------|

|-----------------|-----------------|-----------------|-----------------|


|-----------------|-----------------|-----------------|-----------------|


|-----------------|-----------------|-----------------|-----------------|

 
 

|-----------------|-----------------|-----------------|-----------------|

|-p7------7--h8---|--8--p7--7-------|--8-p7-------7---|-----------------|
|-----------------|-----------------|---------9-------|-7----7-7-h9-----|
|-----------------|-----------------|-----------------|--------------7--|

|-----------------|-----------------|-----------------|-----------------|


|-----------------|-----------------|-----------------|-----------------|

 
 

|-----------------|-----------------|-----------------|-----------------|

|-----------------|-----------------|-----------------|---------------7-|
|---------7-9p7---|-9---7-9p7---9---|-7-9p7---9---7-9-|-p7---9---7-9----|
|(7)--7h9-------9-|---9-------9---9-|-------9---9-----|----9---9--------|

|-----------------|-----------------|-----------------|-----------------|


|-----------------|-----------------|-----------------|-----------------|

 
 

|--------------10-|(10)-12-12f-12fr-|-10-10-10-10------|-10-10-10-10------|
|(7)-8--10--12----|-----------------|------------10-12-|------------10-12-|
|-----------------|-----------------|------------------|------------------|
|-----------------|-----------------|------------------|------------------|
|-----------------|-----------------|------------------|------------------|
|-----------------|-----------------|------------------|------------------|

 
 

|-10-10-12-12------|-10---10-----10--|-10--10--10------|-10--10---10--10-|
|------------10-12-|-----------------|-----------10h12-|-----------------|
|------------------|-----------------|-----------------|-----------------|
|------------------|-----------------|-----------------|-----------------|
|------------------|-----------------|-----------------|-----------------|
|------------------|-----------------|-----------------|-----------------|

 
        hold--|

|-12--12f-12-12---|-10---10---10----|-10--10--10------|10-12p10--12--10-12|
|--------------10-|-----------------|-----------10-12-|--------12--12-----|
|-----------------|-----------------|-----------------|-------------------|
|-----------------|-----------------|-----------------|-------------------|
|-----------------|-----------------|-----------------|-------------------|
|-----------------|-----------------|-----------------|-------------------|

 
 

|p10--12--10-12p10--|12--10-12p10--12--|10-12p10--12--10-12|p10--12--10-12p10--|
|---12--12--------12|--12--------12--12|--------12--12-----|---12--12--------12|
|-------------------|------------------|-------------------|-------------------|
|-------------------|------------------|-------------------|-------------------|
|-------------------|------------------|-------------------|-------------------|
|-------------------|------------------|-------------------|-------------------|

                 hold these bends:
                  |----| |----| |----|  |----| |----| |----| |----| |----| |--

|12--10-12p10--10-12f|-r-12f--r-12f--r-|12f--r-12f--r-12f|-r-12f--r-12f--r-12f|
|--12--------12------|-----------------|-----------------|--------------------|
|--------------------|-----------------|-----------------|--------------------|
|--------------------|-----------------|-----------------|--------------------|
|--------------------|-----------------|-----------------|--------------------|
|--------------------|-----------------|-----------------|--------------------|

   Hold these bends:
 -| |----| |----|   |----|                             |----| |----| |--

|-r-12f--r-12f--r-|-12f--r-12f------|(12)--12f--12f---|12f--r-12f--r-12f|
|-----------------|-----------------|-----------------|-----------------|


|-----------------|-----------------|-----------------|-----------------|


|-----------------|-----------------|-----------------|-----------------|


|-----------------|-----------------|-----------------|-----------------|


|-----------------|-----------------|-----------------|-----------------|

 
--| |---|

|-r-12f-r-10-12p10|-10----10----10--|--10-----10-12p10|-10----12---12f--|
|-----------------|-----------------|----10-12--------|-----------------|
|-----------------|-----------------|-----------------|-----------------|


|-----------------|-----------------|-----------------|-----------------|


|-----------------|-----------------|-----------------|-----------------|


|-----------------|-----------------|-----------------|-----------------|

 
 

|(12)---10--12p10-|-10----12----14--|-14-14/15-15-14-|-14--14---h15-14-|
|-----10----------|-----------------|-----------------|-----------------|
|-----------------|-----------------|-----------------|-----------------|


|-----------------|-----------------|-----------------|-----------------|


|-----------------|-----------------|-----------------|-----------------|


|-----------------|-----------------|-----------------|-----------------|

 
                    
|---------------------|
|(14)--14--14--15-|-15f----15---15--|-15--r-15-14-14-|----14-h15--14h15|
|-----------------|-----------------|-----------------|-----------------|


|-----------------|-----------------|-----------------|-----------------|


|-----------------|-----------------|-----------------|-----------------|


|-----------------|-----------------|-----------------|-----------------|


|-----------------|-----------------|-----------------|-----------------|

 
                    |----------|
|(15)--14--14--15-|-15f----15--r-15-|(15)--14--14h15--|-15--p14-14---12-|

|-----------------|-----------------|-----------------|-----------------|


|-----------------|-----------------|-----------------|-----------------|


|-----------------|-----------------|-----------------|-----------------|


|-----------------|-----------------|-----------------|-----------------|


|-----------------|-----------------|-----------------|-----------------|

 
                         |--------|        |--------------------|  |----|

|-12--h14--15--17-|-17---f---17---r-|-17---17f---17---|(17)--17-r--17f--r-|
|-----------------|-----------------|-----------------|-------------------|
|-----------------|-----------------|-----------------|-------------------|
|-----------------|-----------------|-----------------|-------------------|
|-----------------|-----------------|-----------------|-------------------|
|-----------------|-----------------|-----------------|-------------------|

 
 
|17-15-17-17-15-15|14-14-14-14-14-15|-12--14-10--12-10|-10--------------|
|-----------------|-----------------|-----------------|----12-12--12-10-|

|-----------------|-----------------|-----------------|-----------------|


|-----------------|-----------------|-----------------|-----------------|


|-----------------|-----------------|-----------------|-----------------|


|-----------------|-----------------|-----------------|-----------------|

 
 

|-----------------|-----10-----------|-10--------------|----------10-------|
|-10------------12|p10----12p10--12--|----10--10--10---|10-12p10----12p10--|
|-----11-11--11---|---11-------11--11|---------------11|--------11-------11|
|-----------------|------------------|-----------------|-------------------|
|-----------------|------------------|-----------------|-------------------|
|-----------------|------------------|-----------------|-------------------|

 
 

|------------------|----------10-------|----10-----------|10-----------10--|
|10-12--12--12-----|10-12p10----12p10--|12----12p10--12--|--12p10--12----12|
|-------------11-11|--------11-------11|--11-------11--11|-------11--11----|
|------------------|-------------------|-----------------|-----------------|
|------------------|-------------------|-----------------|-----------------|
|------------------|-------------------|-----------------|-----------------|

 
 

|---------10-------|10----------------|-----------------|--------10-------|
|p10--12----12p10--|--12p10--12--10-12|10--12--10-------|10--12----12-10--|
|---11--11-------11|-------11--11-----|--11--11--119/11|--11--11-------11|
|------------------|------------------|-----------------|-----------------|
|------------------|------------------|-----------------|-----------------|
|------------------|------------------|-----------------|-----------------|

 
 

|10-------10-------|-----------------|-10---------------|-----------------|
|--12p10----12p10--|-----------------|---12p10--12--10--|-----------------|
|-------11-------11|--------%--------|--------11--11--11|9-7-----7-------|
|------------------|-----------------|------------------|-----9-7---9p7---|
|------------------|-----------------|------------------|---------------9-|
|------------------|-----------------|------------------|-----------------|

 
 

|-----------------|-----------------|-----------------|-----------------|

|-----------------|-----------------|---------7---7-8-|--8-10--10-12--12|
|-----------------|---------------7-|-7-9---9---------|-----------------|
|-----7---9---7-9-|-7---7-9-----9---|-----------------|-----------------|
|-7-9---9---9-----|-----------------|-----------------|-----------------|

|-----------------|-----------------|-----------------|-----------------|

 
 
|10-10-12-12-14-14|-10--10----------|-----------------|-----------------|
|-----------------|-------10h12--10-|(10)-------------|-----7-7---7-9---|
|-----------------|-----------------|----9h11----9--7-|-7-9-----------9-|

|-----------------|-----------------|-----------------|-----------------|


|-----------------|-----------------|-----------------|-----------------|


|-----------------|-----------------|-----------------|-----------------|

 
 
|-----------------|-10--------------|-----------------|-----------------|
|-----------------|-------12-----10-|(10)-------------|-----------------|
|-7-9p7-------7---|-----------------|----9h11----9--7-|-----7-7---7h9-7-|
|-------9-7-9-----|-----------------|-----------------|-7-9-------------|

|-----------------|-----------------|-----------------|-----------------|


|-----------------|-----------------|-----------------|-----------------|

 
|-----------------|-10--------------|-----------------|-----------------|
|-----------------|-----10h12----10-|(10)-------------|-----------------|
|-7-9p7-------7---|-----------------|----9h11----9--7-|--------%--------|
|-------9-7-9-----|-----------------|-----------------|-----------------|

|-----------------|-----------------|-----------------|-----------------|


|-----------------|-----------------|-----------------|-----------------|

 
 
|-----------------|-----------------|-----------------|-10--------------|
|-----------------|-----------------|--------------10-|---12p10---------|
|--------%--------|---------------7-|-(7)-9---9h11----|--------11-9-p7-|
|-----------------|-7--------9------|-----------------|-----------------|

|-----------------|-----------------|-----------------|-----------------|


|-----------------|-----------------|-----------------|-----------------|

 
 

|-----------------|-----------------|-----------------|-----------------|

|----7------------|-----------------|-----------------|-----------------|
|-9-----7--9-p7---|-7---------------|------------4--5-|-4-------4---/7--|
|---------------9-|----9-p7---------|----4--5--7------|-----------------|
|-----------------|---------9--7--5-|-7---------------|-----------------|

|-----------------|-----------------|-----------------|-----------------|

 
 

|-----------------|-----------------|-----------------|-----------------|


|-----------------|-----------------|-----------------|-----------------|

|-7-------7---h9--|-6---------------|-----------------|-----------------|
|-----------------|--------------7--|------------4--5-|-5---------5-h7--|
|-----------------|-----------------|-7-------7-------|-----------------|

|-----------------|-----------------|-----------------|-----------------|

 
 

|-----------------|-----------------|-----------------|-----------------|


|-----------------|-----------------|-----------------|-----------------|

|-----------------|-----------------|-----------4-5---|-4--------4--/7--|
|-4---------------|------7----------|(7)--4-5-7-----7-|-----------------|
|----------7---5--|-4---------------|-----------------|-----------------|

|-----------------|-----------------|-----------------|-----------------|

 
 

|-----------------|-----------------|-----------------|-----------------|

|-----------------|-----------------|---------7-------|-8-------10------|
|-7--------7---9--|-6h9p6-----7-----|-9---------------|-----------------|

|-----------------|-----------------|-----------------|-----------------|


|-----------------|-----------------|-----------------|-----------------|


|-----------------|-----------------|-----------------|-----------------|

 
 
|--------10-------|-12---f--12r-----|(12)--------9-10-|-----------------|
|-12--------------|-----------------|---------10------|-----------------|
|-----------------|-----------------|-------9---------|-4-------4-/5-/7-|

|-----------------|-----------------|-----------------|-----------------|


|-----------------|-----------------|-----------------|-----------------|


|-----------------|-----------------|-----------------|-----------------|

 
 

|-----------------|-----------------|-----------------|-----------------|

|-----------------|-----------------|-----------------|-5h7p5h7p5----(5)|
|-7----4-4-------|-----------------|-6-7-6-----------|-----------------|
|-----------5-5/7-|-7---------------|-----------------|-----------------|

|-----------------|-----------------|-----------------|-----------------|


|-----------------|-----------------|-----------------|-----------------|

 
 
|----------9h10p9-|-12h14p12----(12)|17h19p17h19p17--17h19-19p17h19p17h19p17h19|
|-10h12p10--------|-----------------|--------------19--------------------------|
|-----------------|-----------------|------------------------------------------|
|-----------------|-----------------|------------------------------------------|
|-----------------|-----------------|------------------------------------------|
|-----------------|-----------------|------------------------------------------|
 

TOP cifras de Allman Brothers Band

  1. Soulshine
  2. Its Not My Cross To Bear
  3. Seven Turns Intro
  4. Ain't Wastin' Time No More
  5. Jessica Intro
  6. Good Clean Fun
  7. Rambling Man
  8. Midnight Rider
  9. Old Before My Time Intro
  10. Cant Lose What You Never Had

Pela Web