Cifras Web
Allman Brothers Band

Ramblin Man Solo

Allman Brothers Band

18 acessos

Ramblin Man

Intro:


E-15-----------------------------------12---------------|
B----17-15-----------------------------13p12-------17-15|
G----------16s14-12--------------12-14------14p12--17-16|
D-------------------14-12---12-14-----------------------|
A-------------------------------------------------------|
E-------------------------------------------------------|



Solo:
                    G            D       C                 G              

E------------------12------------------------------------------|
B---------------------15-15--15-12-----------------------------|
G------11-12-14-12-----------------14-14-15-14-12--------------|
D-12-14------------------------------------------14-12---------|
A-----------------------------------------------------14-12-10-|
E--------------------------------------------------------------|


              G      C                   G

E-------------15-15-17b18-18-15-15---17--15---------------|
B-------15-17---------------------17--------17-15-17-15-17|
G-14/16---------------------------------------------------|
D---------------------------------------------------------|
A---------------------------------------------------------|
E---------------------------------------------------------|

                                                       
                                           C     

E-------15------------------------------------------------|
B--------------------15--17-15-17-------------------------|
G-16s14---16r14-14s16--16-------16s14-12---12--14-12------|
D---------------------------------------14----------14-12-|
A---------------------------------------------------------|
E---------------------------------------------------------|


  D                            C                  G

E--------------------------------------------------------------|
B--------------------------------------------------------------|
G------------------------------12-15s14-12--14-12-15r14-12-12--|
D-12-12-14-12-14-15s14-12----14--------------------------------|
A--------------------------------------------------------------|
E--------------------------------------------------------------|



        Em               C                 G

E------------------------------------------15-15-17|
B-------13p12-----------------------15-17----------|
G-14-12------14-14p12---------14s16----------------|
D---------------------14-14------------------------|
A--------------------------------------------------|
E--------------------------------------------------|


           D                 G

E-15-------------------------------------------------|
B---17-15--17-15-------------13p12-------------------|
G--------16------16s14-12---------14p12-14--12-14-12-|
D------------------------14--------------------------|
A----------------------------------------------------|
E----------------------------------------------------|


   

E----------------------------------------------------|
B----------------------------------------------------|
G-12-------------------------------------------------|
D---14-12--------------------------------------------|
A---------14-12--------------------------------------|
E----------------------------------------------------|


This is the easiest way I've found and it sounds pretty
close to me. Any questions comments or suggestions feel
free to email me.

TOP cifras de Allman Brothers Band

  1. Soulshine
  2. Its Not My Cross To Bear
  3. Seven Turns Intro
  4. Ain't Wastin' Time No More
  5. Jessica Intro
  6. Good Clean Fun
  7. Rambling Man
  8. Midnight Rider
  9. Old Before My Time Intro
  10. Cant Lose What You Never Had

Pela Web