Cifras Web
Allman Brothers Band

Whipping Post

Allman Brothers Band

11 acessos

By:Andrew Mcshan( G*)
INTRO

|---------------------------------------|
|---------------------------------------|
|---------------------------------------|
|---------------------------------------|
|-------------------------------3h5-----|
|-55h3-5p3h5-3h5-5p3h5-3h5-5p3h5------5-|



|---------------------------------------|
|-------------------------------5h8-5---|
|-5h7-7-----5h7-7-----5h7-7-----5h7-5---|
|-5h7-7-----5h7-7-----5h7-7-------------|
|---------------------------------------|
|---------------------------------------|

Verse
A  Bm  C  Bm
Ive been run down
Ive been lied to
And I dont know why I let that mean woman make me a fool
She took all my money
Wrecked my new car
And now shes with one of my good time buddies drinking in some cross town bar.

Guitar 2 Plays this during the verse

|-------^----^-----^---^----------------|
|-------5----7-----8--10ph8----7/5------| ^ means Bend
|---------------------------------------|
|---------------------------------------|
|---------------------------------------|
|---------------------------------------|

Pre Chorus

|-------------------------10-10-8-------------------|
|--------------------8-10----------10-8--------------|
|-----------------/9---------------------------------|
|----------------------------------------------------|
|-----------4-5--------------------------------------|
|-5---8----------------------------------------------|

sometimes I feel

|------------------------17-20--20-20-17-20----------|
|------------------17-20-----------------------------|
|----------------------------------------------------|
|-----------5----------------------------------------|
|-5---7-------7-5------------------------------------|
|----------------------------------------------------|

sometimes I feel 
Chorus
             A

|---------------5--5---------------------|
|---------------5--5-8-5-----------------|
|---------------6----7-5-5-7--5----------|
|---------------7--------5-7--5----------|
|---------------7------------------------|
|---------------5------------------------|

Like I've been tied to the whipping post
          A 
Oh Lord I feel like I'm dying.

|---------------------------------------|
|---------------------------------------|
|-5h7-7-----5h7-7-----5h7-7-------------|
|-5h7-7-----5h7-7-----5h7-7--------2----|
|----------------------------------2----|
|----------------------------------0----|

Bridge

|-------------------------------------------------10h12p10----|
|-5-------5------------------10p8--------10-12-13-10h12p10-13-|
|-7----5--7-----5-7p5-------------9p7-----9-11-12----------12-|
|------------------------7------------10----------------------|
|-------------------------------------------------------------|
|-------------------------------------------------------------|

Verse 2:
A  Bm  C  Bm
My friends tell me
That I've been such a fool
And I have to stand by and take it, babe all for loving you.
I drown myself in sorrow.
Cause I look at what you've done.
But nothing seems to change.  The bad times stay the same, and I can't run.

Pre Chorus
Chorus
Bridge


|---------------------------------------------------------------------|
|---------------------------------------------------------------------|
|---------------------------------------------------------------------|
|---------------------------------------------------5-5-5-5-5-7-7-7-7-|
|-------------------------5-5-5-5-5-7-7-7-7-8-8-8-8-------------------|
|-5-5-5-5-7-7-7-7-8-8-8-8---------------------------------------------|



|-------------------------------------------------5-5-5-5------|
|-------------------------5-5-5-5-6-6-6-6-8-8-8-8--------------|
|-4-4-4-4-5-5-5-5-7-7-7-7--------------------------------------|
|--------------------------------------------------------------|
|--------------------------------------------------------------|
|--------------------------------------------------------------|


Chorus

TOP cifras de Allman Brothers Band

  1. Soulshine
  2. Its Not My Cross To Bear
  3. Seven Turns Intro
  4. Ain't Wastin' Time No More
  5. Jessica Intro
  6. Good Clean Fun
  7. Rambling Man
  8. Midnight Rider
  9. Old Before My Time Intro
  10. Cant Lose What You Never Had

Pela Web