Cifras Web
Anathema

Pitiless

Anathema

15 acessos

Album: Judgement


Intro:
Bass

|------------------------------------|----------------------------------|
|--2-2-2-2-2-2-2-2-2-2-2-2-2-2-2-2-2-|-5-5-5-5-5-5-5-5-5-5-5-5-5-5-5-5--|
|------------------------------------|----------------------------------|
|------------------------------------|----------------------------------|



|-------------------------------------------------------------------|
|--1-1-1-1-1-1-1-1-1-1-1-1-1-1-1-1-1-1-1-1-1-1-1-1-1-1-1-1-1-1-1-1--|
|-------------------------------------------------------------------|
|-------------------------------------------------------------------|


Verse:
Guitar

|-----------------------------------|---------------------------------------------------|
|-----------------------------------|---------------------------------------------------|
|--9-9-9-9-9-9-9-9-9-9-9-9-9-9-9-9--|--12-12-12-12-12-12-12-12-12-12-12-12-12-12-12-12--|
|--9-9-9-9-9-9-9-9-9-9-9-9-9-9-9-9--|--12-12-12-12-12-12-12-12-12-12-12-12-12-12-12-12--|
|--7-7-7-7-7-7-7-7-7-7-7-7-7-7-7-7--|--10-10-10-10-10-10-10-10-10-10-10-10-10-10-10-10--|
|-----------------------------------|---------------------------------------------------|



|-------------------------------------------------------------------|
|-------------------------------------------------------------------|
|--8-8-8-8-8-8-8-8-8-8-8-8-8-8-8-8-8-8-8-8-8-8-8-8-8-8-8-8-8-8-8-8--|
|--8-8-8-8-8-8-8-8-8-8-8-8-8-8-8-8-8-8-8-8-8-8-8-8-8-8-8-8-8-8-8-8--|
|--6-6-6-6-6-6-6-6-6-6-6-6-6-6-6-6-6-6-6-6-6-6-6-6-6-6-6-6-6-6-6-6--|
|-------------------------------------------------------------------|


Chorus:

|-------------------------------|
|-------------------------------|
|---5------4-------5-------8----|
|---5------4-------5-------8----|
|---3------2-------3-------6----|
|-------------------------------|

   |x?|	  |x?|	  |x?|


"I Could stare for...."

|----------------------------------------------------------------------------0--|
|--0-----0--------1---0-----0------3---1---0-----0---------1-0-----0------3-----|
|-----0-----2--2---------0------2-------------0------2--2-------0------2--------|
|-------------------------------------------------------------------------------|
|-------------------------------------------------------------------------------|
|-------------------------------------------------------------------------------|



|-------------------------------------------------------------------------|
|--0-----0--------1---0-----0------3---1---0-----0---------1-0-----0------|
|-----0-----2--2---------0------2-------------0------2--2-------0------2--|
|-------------------------------------------------------------------------|
|-------------------------------------------------------------------------|
|-------------------------------------------------------------------------|


Solo:

|--12-12----12-------12----12----12--15-15-15-15-15-15-15-15-15-15-15-15-15-15-15--|
|--15----15----15-15----15----15-----18-------------------------------------18-----|
|----------------------------------------------------------------------------------|
|----------------------------------------------------------------------------------|
|----------------------------------------------------------------------------------|
|----------------------------------------------------------------------------------|



|-15-15-15-15-15-15-15-15-15-15-15-15-15-15-15-15-15-15-15-15-15-15-15-15-15-15-15--|
|-----------------------------------------------------------------------------------|
|-----------------------------------------------------------------------------------|
|-----------------------------------------------------------------------------------|
|-----------------------------------------------------------------------------------|
|-----------------------------------------------------------------------------------|



|-----15-15----15--------15-------15-14~~~~~~--12~~~~~~--12~~--12~~--12~~--12~~-----|
|--15-------15-----15-15----17-17----14~~~~~~--15~~~~~~--15~~--15~~--15~~--15~~-----|
|-----------------------------------------------------------------------------------|
|--------------------------------------------------------------------------------0--|
|-----------------------------------------------------------------------------------|
|-----------------------------------------------------------------------------------|





--------------------------------------

*

TOP cifras de Anathema

  1. Temporary Peace
  2. Inner Silence
  3. Lost Control
  4. Deep
  5. Forgotten Hopes
  6. Flying
  7. They Will Always Die
  8. One Last Goodbye
  9. Leave No Trace
  10. Pressure

Pela Web