Cifras Web
Autograph

Thrill Of Love

Autograph

8 acessos

this band is not a very popular band, i grew up listening to these guys.

tuning:standard
tabbed by:a crazy teenage rock and roll fan


verse

E|---------------------------|
B|---------------------------|
G|---------------------------|
D|-7-4----7-4----7-5---7---4-|
A|-7-4----7-4----7-5---7---4-|
E|-5-2----5-2----5-3---5---2-|

reapeat this for the intro and the verses

pre-chorus

E|------------------------|
B|------------------------|
G|------------------------|
D|-7--7--7--7--7--7--7--7-|
A|-7--7--7--7--7--7--7--7-|
E|-5--5--5--5--5--5--5--5-|


chorus

E|---------------------------------------------|
B|---------------------------------------------|
G|---------------------------------------------|
D|-4-4-4-4-4-4-4-4-4-4-4-4-4-4-4-4-4----7----9-|
A|-4-4-4-4-4-4-4-4-4-4-4-4-4-4-4-4-4----7----9-|
E|-2-2-2-2-2-2-2-2-2-2-2-2-2-2-2-2-2----5----7-|

reapeat this two times for the chorus

the pattern goes like this
verse
pre-chorus
chorus2x
verse
pre-chorus
chorus3x
solo (i have no clue)
pre-chorus
chorus (fade out)

that should do it...KEEP ROCK AND ROLL ALIVE!

TOP cifras de Autograph

  1. Send Her To Me
  2. Friday
  3. Thrill Of Love
  4. In The Night
  5. Thats The Stuff
  6. Turn Up The Radio

Pela Web