Cifras Web
Axel Fernando

Crazy Frog

Axel Fernando

11 acessos


E|------------------------------------------------------------------------
B|----------------------------------7-------------------------------------
G|---------4--------6-----7-6-----6---------------------------------------  (2x)
D|-4-7-4-4---4---4----4-4-----7-4-----4-------6-4-------------------------
A|-------------7------------------------7-7-4-----------------------------
E|------------------------------------------------------------------------



E|------------------------------------------------------------------------
B|------------------------------------------------------------------------
G|------------------------------------------------------------------------  (4x)
D|--4-4-2-2---2-2-4-4-----2-4-----2-2---2-4-4-----------------------------
A|----------4---------4-4-----5-5-----4-----------------------------------
E|------------------------------------------------------------------------



E|------------------------------------------------------------------------
B|----------------------------------7-------------------------------------
G|---------4--------6-----7-6-----6---------------------------------------  (2x)
D|-4-7-4-4---4---4----4-4-----7-4-----4-------6-4-------------------------
A|-------------7------------------------7-7-4-----------------------------
E|------------------------------------------------------------------------



E|------------------------------------------------------------------------
B|------------------------------------------------------------------------
G|------------------------------------------------------------------------  (4x)
D|--4-4-2-2---2-2-4-4-----2-4-----2-2---2-4-4-----------------------------
A|----------4---------4-4-----5-5-----4-----------------------------------
E|------------------------------------------------------------------------



E|------------------------------------------------------------------------
B|----------------------------------7-------------------------------------
G|---------4--------6-----7-6-----6---------------------------------------  (2x)
D|-4-7-4-4---4---4----4-4-----7-4-----4-------6-4-------------------------
A|-------------7------------------------7-7-4-----------------------------
E|------------------------------------------------------------------------


Top cifras de Axel Fernando

  1. Me Puedes de Punta a Punta
  2. Miradas
  3. Aunque Dobles Mi Edad
  4. Parece Mentira
  5. Sola, Sola (woman, Woman)
  6. Desde Que Te Vi
  7. Por Eso No Hablo
  8. Quiero Que Te Enteres
  9. Te Quiero Olvidar
  10. Crazy Frog

Pela Web