Cifras Web
Banda Elyte

Ele Se Apaixonou

Banda Elyte

12 acessos

Intro: C# G# F#

F#
Se ele pudesse pegar uma estrela no céu
C# G#
Ele pegaria, ele te daria
F#
Se a lua do céu fosse um prêmio, um troféu
C# G#
Ele ganharia, um herói seria
F# C#
Faz loucuras por essa mulher
G#
Ele faz tudo o que ela quer
F#
Só porque? Porque?
C# G#
Ele se apaixonou

C#
Ele se apaixonou
G#
Grita ao mundo inteiro, ele se apaixonou
F# F F#
Puro e verdadeiro, ele se apaixonou

Se de tem o tempo, brotam sentimentos
C# G#
Ele se apaixonou (2X)


Solo Final:

C#


E|------------------------------------
B|-------14------16--14--16--16/18~~ -
G|-9/13------13-----------------------
D|------------------------------------
A|------------------------------------
E|------------------------------------


G#


E|-14/16--16--16--13--13------------------------
B|------------------------16--16--14--13--------
G|----------------------------------------13~~ -
D|----------------------------------------------
A|----------------------------------------------
E|----------------------------------------------


F#


E|-------------16----------------------16--16b18r16--14-
B|-----14--16------16--14------14--16-------------------
G|-13----------------------13---------------------------
D|------------------------------------------------------
A|------------------------------------------------------
E|------------------------------------------------------


C#

E|-----------------------------------------11------11--14--16--14---14/16/21~~ -
B|-------------------------11------11--14------14-------------------------------
G|---------11------11--13------13-----------------------------------------------
D|-11--13------13---------------------------------------------------------------
A|------------------------------------------------------------------------------
E|------------------------------------------------------------------------------

Top cifras de Banda Elyte

  1. Essa Mulher É Um Anjo
  2. Ele Se Apaixonou

Pela Web