Cifras Web
Banda Geração Santa

Deus da Minha Vida

Banda Geração Santa

9 acessos

 Tom:Dm



E|--------------------------|
A|-----5--------------------|
D|-------5--7---5--5-5h7----|
G|-------5--7---5--5-5h7----|
B|--------------------------|
E|--------------------------|



E|--------------------------|
A|-----5--------------------|
D|-------7---7/-------------|
G|---------5------5-5-x-3-2-|
B|--------------------------|
E|--------------------------|


(Primeira Parte)


E|--------------------------|
A|--------------------------|
D|--------------------------|
G|---5h6-5h6-5-6--3---------|
B|---5---5---5-5--3---------|
E|--------------------------|


Deus meu Pai meu
Amor meu Tudo, razão de tudo
Deus meu Ar Meu
Farol O farol que eu preciso
Como eu preciso...


(Segunda Parte)

       Dm7
Eu preciso Te sentir todo dia
     Dm7                     G
E olhar pra Tua luz pra não me perder
     Dm7                       G
Meu Senhor, Tu és a minha alegria
       Bb9
Eu preciso...

Refrão:
               Bb9
Deus da minha vida
 C9     Dm7
Fica comigo
           Bb9
Sou a sua casa
 C9      Dm7
Mora em mim
               Bb9
Deixa eu Te dizer
    C9       Dm7
O que eu preciso, Pai
       Bb9
Eu preciso do Senhor...

 Lalalalala lala

E|--------------------------|
A|--3--5--------------------|
D|--3--5--/7----------------|
G|--3--5--/7----------------|
B|--------------------------|
E|--------------------------|


(Primeira Parte)


E|--------------------------|
A|--------------------------|
D|--------------------------|
G|---5h6-5h6-5-6--3---------|
B|---5---5---5-5--3---------|
E|--------------------------|


Deus meu Pai meu

Amor meu Tudo, razão de tudo

Deus meu Ar Meu

Farol O farol que eu preciso

Como eu preciso...

(Segunda Parte)

       Dm7
Eu preciso Te sentir todo dia
     Dm7                     G
E olhar pra Tua luz pra não me perder
     Dm7                       G
Meu Senhor, Tu és a minha alegria
       Bb9
Eu preciso...

Refrão:
               Bb9
Deus da minha vida     -

 C9     Dm7            -
Fica comigo            -


           Bb9         -
Sou a sua casa         --- 2X....


 C9      Dm7           -
Mora em mim            -

               Bb9     -
Deixa eu Te dizer      -
    C9       Dm7
O que eu preciso, Pai
       Bb9
Eu preciso do Senhor...
              Bb9      C9
Eu preciso do Senhoooor Uooo

Base:( Bb9(11+) C9  Dm7 ) (8x) Bb9(11+)

Solo:....

Repete Refrão:

TOP cifras de Banda Geração Santa

  1. Seu Sangue
  2. Deus Me Ama
  3. Deus da Minha Vida

Pela Web