Banda Legal

Vou Beber a Minha e a Dela

Banda Legal


E|------|------|-8-8-8-|------|--7---7-|--8---8--|--8---8-|--8---8-|--7---7-|
B|------|------|-8-8-8-|------|--8---8-|--10--10-|--8---8-|--8---8-|--8---8-|
G|------|------|-9-9-9-|------|--7---7-|--10--10-|--9---9-|--9---9-|--7---7-|
D|------|------|-------|------|--------|---------|--------|--------|--------|
A|------|------|-------|------|--------|---------|--------|--------|--------|
E|------|------|-------|------|--------|---------|--------|--------|--------|



E|--8---8--|-8----|-8----|--7---7-|--8---8--|--8---8-|--8---8-|--7---7-|--8---8--|
B|--10--10-|-8----|-8----|--8---8-|--10--10-|--8---8-|--8---8-|--8---8-|--10--10-|
G|--10--10-|-9----|-9----|--7---7-|--10--10-|--9---9-|--9---9-|--7---7-|--10--10-|
D|---------|------|------|--------|---------|--------|--------|--------|---------|
A|---------|------|------|--------|---------|--------|--------|--------|---------|
E|---------|------|------|--------|---------|--------|--------|--------|---------|



E|--8---8-|--8---8-|--7---7-|--7---7-|--8---8-|--8---8-|--7---7-|--8---8--|
B|--8---8-|--8---8-|--8---8-|--8---8-|--8---8-|--8---8-|--8---8-|--10--10-|
G|--9---9-|--9---9-|--7---7-|--7---7-|--9---9-|--9---9-|--7---7-|--10--10-|
D|--------|--------|--------|--------|--------|--------|--------|---------|
A|--------|--------|--------|--------|--------|--------|--------|---------|
E|--------|--------|--------|--------|--------|--------|--------|---------|



E|--8---8-|--8---8-|--7---7-|--7---7-|--8---|-8-8-8-|--8---8--|--8---8-|--7---|
B|--8---8-|--8---8-|--8---8-|--8---8-|--8---|-8-8-8-|--10--10-|--8---8-|--8---|
G|--9---9-|--9---9-|--7---7-|--7---7-|--9---|-9-9-9-|--10--10-|--9---9-|--7---|
D|--------|--------|--------|--------|------|-------|---------|--------|------|
A|--------|--------|--------|--------|------|-------|---------|--------|------|
E|--------|--------|--------|--------|------|-------|---------|--------|------|



E|-7----|--8---8-|--7---7-|--8---8-|--8---8-|--8---8-|--7---7-|--7---7-|---------|
B|-8----|--8---8-|--8---8-|--8---8-|--8---8-|--8---8-|--8---8-|--8---8-|--10--10-|
G|-7----|--9---9-|--7---7-|--9---9-|--9---9-|--9---9-|--7---7-|--7---7-|--10--10-|
D|------|--------|--------|--------|--------|--------|--------|--------|--12--12-|
A|------|--------|--------|--------|--------|--------|--------|--------|---------|
E|------|--------|--------|--------|--------|--------|--------|--------|---------|



E|---------|--7---7-|--8---8-|--7---7-|--8---8-|--8---8-|--0---0--|--8---8--|
B|--10--10-|--8---8-|--8---8-|--8---8-|--8---8-|--8---8-|--11--11-|--10--10-|
G|--10--10-|--7---7-|--9---9-|--7---7-|--9---9-|--9---9-|--12--12-|--10--10-|
D|--12--12-|--------|--------|--------|--------|--------|---------|---------|
A|---------|--------|--------|--------|--------|--------|---------|---------|
E|---------|--------|--------|--------|--------|--------|---------|---------|



E|--8---8--|--8---8-|--8---8-|--7---7-|--5---7-|--8---8-|-8---8-|-8----|--7---7-|
B|--10--10-|--8---8-|--8---8-|--8---8-|--6---8-|--8---8-|-10--8-|-10---|--8---8-|
G|--10--10-|--9---9-|--9---9-|--7---7-|--5---7-|--9---9-|-10--9-|-10---|--7---7-|
D|---------|--------|--------|--------|--------|--------|-------|------|--------|
A|---------|--------|--------|--------|--------|--------|-------|------|--------|
E|---------|--------|--------|--------|--------|--------|-------|------|--------|



E|--7---7-|--8---8-|--8---8-|--7---7-|--8---8--|--8---8-|--8---8-|--7---7-|
B|--8---8-|--8---8-|--8---8-|--8---8-|--10--10-|--8---8-|--8---8-|--8---8-|
G|--7---7-|--9---9-|--9---9-|--7---7-|--10--10-|--9---9-|--9---9-|--7---7-|
D|--------|--------|--------|--------|---------|--------|--------|--------|
A|--------|--------|--------|--------|---------|--------|--------|--------|
E|--------|--------|--------|--------|---------|--------|--------|--------|



E|--7---7-|--8---8-|-8-8-8-|--8---8--|--8---8-|--7---7-|-7----|--8---8-|--8---8-|
B|--8---8-|--8---8-|-8-8-8-|--10--10-|--8---8-|--8---8-|-8----|--8---8-|--8---8-|
G|--7---7-|--9---9-|-9-9-9-|--10--10-|--9---9-|--7---7-|-7----|--9---9-|--9---9-|
D|--------|--------|-------|---------|--------|--------|------|--------|--------|
A|--------|--------|-------|---------|--------|--------|------|--------|--------|
E|--------|--------|-------|---------|--------|--------|------|--------|--------|



E|--7---7-|--8---8--|--8---8-|--8---8-|--7---7-|--8---8--|-8----|-8----|--7---7-|
B|--8---8-|--10--10-|--8---8-|--8---8-|--8---8-|--10--10-|-8----|-8----|--8---8-|
G|--7---7-|--10--10-|--9---9-|--9---9-|--7---7-|--10--10-|-9----|-9----|--7---7-|
D|--------|---------|--------|--------|--------|---------|------|------|--------|
A|--------|---------|--------|--------|--------|---------|------|------|--------|
E|--------|---------|--------|--------|--------|---------|------|------|--------|



E|--8---8--|--8---8-|--8---8-|--7---7-|--8---8--|--8---8-|--8---8-|--7---7-|
B|--10--10-|--8---8-|--8---8-|--8---8-|--10--10-|--8---8-|--8---8-|--8---8-|
G|--10--10-|--9---9-|--9---9-|--7---7-|--10--10-|--9---9-|--9---9-|--7---7-|
D|---------|--------|--------|--------|---------|--------|--------|--------|
A|---------|--------|--------|--------|---------|--------|--------|--------|
E|---------|--------|--------|--------|---------|--------|--------|--------|



E|--7---7-|--8---8-|--8---8-|--7---7-|--8---8--|--8---8-|--8---8-|--7---7-|
B|--8---8-|--8---8-|--8---8-|--8---8-|--10--10-|--8---8-|--8---8-|--8---8-|
G|--7---7-|--9---9-|--9---9-|--7---7-|--10--10-|--9---9-|--9---9-|--7---7-|
D|--------|--------|--------|--------|---------|--------|--------|--------|
A|--------|--------|--------|--------|---------|--------|--------|--------|
E|--------|--------|--------|--------|---------|--------|--------|--------|



E|--7---7-|--8---|-8-8-8-|--8---8--|--8---8-|--7---|-7----|--8---8-|--7---7-|
B|--8---8-|--8---|-8-8-8-|--10--10-|--8---8-|--8---|-8----|--8---8-|--8---8-|
G|--7---7-|--9---|-9-9-9-|--10--10-|--9---9-|--7---|-7----|--9---9-|--7---7-|
D|--------|------|-------|---------|--------|------|------|--------|--------|
A|--------|------|-------|---------|--------|------|------|--------|--------|
E|--------|------|-------|---------|--------|------|------|--------|--------|



E|--8---8-|--8---8-|--8---8-|--7---7-|--7---7-|---------|---------|--7---7-|
B|--8---8-|--8---8-|--8---8-|--8---8-|--8---8-|--10--10-|--10--10-|--8---8-|
G|--9---9-|--9---9-|--9---9-|--7---7-|--7---7-|--10--10-|--10--10-|--7---7-|
D|--------|--------|--------|--------|--------|--12--12-|--12--12-|--------|
A|--------|--------|--------|--------|--------|---------|---------|--------|
E|--------|--------|--------|--------|--------|---------|---------|--------|



E|--8---8-|--7---7-|--8---8-|--8---8-|--0---0--|--8---8--|--8---8--|--8---8-|
B|--8---8-|--8---8-|--8---8-|--8---8-|--11--11-|--10--10-|--10--10-|--8---8-|
G|--9---9-|--7---7-|--9---9-|--9---9-|--12--12-|--10--10-|--10--10-|--9---9-|
D|--------|--------|--------|--------|---------|---------|---------|--------|
A|--------|--------|--------|--------|---------|---------|---------|--------|
E|--------|--------|--------|--------|---------|---------|---------|--------|



E|--8---8-|--7---7-|--5---7-|--8---8-|-8---8-|-8----|--7---7-|--7---7-|--8---8-|
B|--8---8-|--8---8-|--6---8-|--8---8-|-10--8-|-10---|--8---8-|--8---8-|--8---8-|
G|--9---9-|--7---7-|--5---7-|--9---9-|-10--9-|-10---|--7---7-|--7---7-|--9---9-|
D|--------|--------|--------|--------|-------|------|--------|--------|--------|
A|--------|--------|--------|--------|-------|------|--------|--------|--------|
E|--------|--------|--------|--------|-------|------|--------|--------|--------|



E|--8---8-|--7---7-|--8---8--|--8---8-|--8---8-|--7---7-|--7---7-|--8---8-|
B|--8---8-|--8---8-|--10--10-|--8---8-|--8---8-|--8---8-|--8---8-|--8---8-|
G|--9---9-|--7---7-|--10--10-|--9---9-|--9---9-|--7---7-|--7---7-|--9---9-|
D|--------|--------|---------|--------|--------|--------|--------|--------|
A|--------|--------|---------|--------|--------|--------|--------|--------|
E|--------|--------|---------|--------|--------|--------|--------|--------|



E|-8-8-8-|--8---8--|--8---8-|--7---7-|-7----|--8---8-|--8---8-|--7---7-|--7---7-|
B|-8-8-8-|--10--10-|--8---8-|--8---8-|-8----|--8---8-|--8---8-|--8---8-|--8---8-|
G|-9-9-9-|--10--10-|--9---9-|--7---7-|-7----|--9---9-|--9---9-|--7---7-|--7---7-|
D|-------|---------|--------|--------|------|--------|--------|--------|--------|
A|-------|---------|--------|--------|------|--------|--------|--------|--------|
E|-------|---------|--------|--------|------|--------|--------|--------|--------|



E|--8---8-|--8---8-|--7---7-|--8---8--|--8---8-|--8---8-|--7---7-|--7---7-|
B|--8---8-|--8---8-|--8---8-|--10--10-|--8---8-|--8---8-|--8---8-|--8---8-|
G|--9---9-|--9---9-|--7---7-|--10--10-|--9---9-|--9---9-|--7---7-|--7---7-|
D|--------|--------|--------|---------|--------|--------|--------|--------|
A|--------|--------|--------|---------|--------|--------|--------|--------|
E|--------|--------|--------|---------|--------|--------|--------|--------|



E|--8---8-|-8-8-8-|--8---8--|--8---8-|--7---7-|-7----|--8---8-|--8---8-|--7---7-|
B|--8---8-|-8-8-8-|--10--10-|--8---8-|--8---8-|-8----|--8---8-|--8---8-|--8---8-|
G|--9---9-|-9-9-9-|--10--10-|--9---9-|--7---7-|-7----|--9---9-|--9---9-|--7---7-|
D|--------|-------|---------|--------|--------|------|--------|--------|--------|
A|--------|-------|---------|--------|--------|------|--------|--------|--------|
E|--------|-------|---------|--------|--------|------|--------|--------|--------|


E|--8---8--|--8---8-|--8---8-|--7---7-|--8---8--|-8----|
B|--10--10-|--8---8-|--8---8-|--8---8-|--10--10-|-8----|
G|--10--10-|--9---9-|--9---9-|--7---7-|--10--10-|-9----|
D|---------|--------|--------|--------|---------|------|
A|---------|--------|--------|--------|---------|------|
E|---------|--------|--------|--------|---------|------|

Curte essa cifra? Compartilhe com seus amigos:


Pela Web

Deixe seu comentário