Cifras Web
Banda Mercosul

Culpa do Seu Beijo

Banda Mercosul

8 acessos

                 E           B/D#         C#m
É culpa do seu beijo que eu estou indo embora
                 E           B/D#         C#m
Eu sei foi só um beijo mas o que eu faço agora
C#m7/B           A   E/G#           F#m
Basta fechar os olhos que eu lembro você
      B
Me beijando outra vez
Solo:

E|--16-16h17p16--------------------------------------|
B|--------------19-17-19/21-21-21-19h21p19-19-19-17--|
G|---------------------------------------------------|
D|---------------------------------------------------|
A|---------------------------------------------------|
E|---------------------------------------------------|



E|--16-16h17p16----------------19--------------------|
B|--------------19-17-19/21-21----19h21p19-19-19--17-|
G|---------------------------------------------------|
D|---------------------------------------------------|
A|---------------------------------------------------|
E|---------------------------------------------------|



E|--17-17h19p17-16----16h17-17-21-16h17p16-16-16~----|
B|-----------------19----------------------------19~-|
G|---------------------------------------------------|
D|---------------------------------------------------|
A|---------------------------------------------------|
E|---------------------------------------------------|


E
Achei que não me apaixonava fácil
       G#m
Que alguém feito você jamais iria aparecer
 A                          F#m
Hoje faço o possível e o impossível
      B
Pra poder estar aonde está você
E
Sei que pra você foi só um beijo
     G#m
Mas gosto da sua conversa e seu humor
       A                    F#m
Tenho medo de não conseguir você
              B
De não conquistar o seu amor

Refrão:
B
É culpa do seu beijo que eu estou indo embora
                 E           B/D#         C#m
Eu sei foi só um beijo mas o que eu faço agora
C#m7/B           A   E/G#           F#m
Basta fechar os olhos que eu lembro você
      B
Me beijando outra vez
Solo:

E|--16-16h17p16--------------------------------------|
B|--------------19-17-19/21-21-21-19h21p19-19-19-17--|
G|---------------------------------------------------|
D|---------------------------------------------------|
A|---------------------------------------------------|
E|---------------------------------------------------|



E|--16-16h17p16----------------19--------------------|
B|--------------19-17-19/21-21----19h21p19-19-19--17-|
G|---------------------------------------------------|
D|---------------------------------------------------|
A|---------------------------------------------------|
E|---------------------------------------------------|



E|--17-17h19p17-16----16h17-17-21-16h17p16-16-16~----|
B|-----------------19----------------------------19~-|
G|---------------------------------------------------|
D|---------------------------------------------------|
A|---------------------------------------------------|
E|---------------------------------------------------|



(repete tudo)
Solo:

E|--16-16h17p16--------------------------------------|
B|--------------19-17-19/21-21-21-19h21p19-19-19-17--|
G|---------------------------------------------------|
D|---------------------------------------------------|
A|---------------------------------------------------|
E|---------------------------------------------------|



E|--16-16h17p16----------------19--------------------|
B|--------------19-17-19/21-21----19h21p19-19-19--17-|
G|---------------------------------------------------|
D|---------------------------------------------------|
A|---------------------------------------------------|
E|---------------------------------------------------|



E|--17-17h19p17-16----16h17-17-21-16h17p16-16-16~----|
B|-----------------19----------------------------19~-|
G|---------------------------------------------------|
D|---------------------------------------------------|
A|---------------------------------------------------|
E|---------------------------------------------------|


Top cifras de Banda Mercosul

  1. Pede pra voltar
  2. Transplante de Coração
  3. Uma e Quinze da Manhã
  4. Colado Em Suas Mãos
  5. Deixa Eu Te Amar
  6. Amor Na Faculdade
  7. Culpa do Seu Beijo
  8. Mãe, Eu Voltei (Homenagem a Nossa Senhora Aparecida)
  9. Loira da Pele Marrom
  10. A Cada Copo de Cerveja

Pela Web