Cifras Web
Beat Crusaders

Ghost

Beat Crusaders

7 acessos

(intro)

(guitarra 1)

e:|------4--2-------------2------------|
B:|------------5-4-4-4-5-----5---------|
G:|---2--------------------------------| (2x)
D:|------------------------------------|
A:|------------------------------------|
E:|------------------------------------|

(no meio da música altera para:)
e:|------4--2----5-4-2--4-2------------|
B:|------------5-------------5---------|
G:|---2--------------------------------| (2x)
D:|------------------------------------|
A:|------------------------------------|
E:|------------------------------------|

(guitarra 2)

(riff 1)

e:|---------|----------|
B:|---------|----------|
G:|-4--6--8-|-4--6-9-8-|
D:|-2--4--6-|-2--4-7-6-|
A:|---------|----------|
E:|---------|----------|

(pós riff 1)

e:|---------------|---------------|
B:|---------------|---------------|
G:|-X-6--6-6-6-6--|-X-4---4-4-4-4-|
D:|-X-4--4-4-4-4--|-X-2---2-2-2-2-|
A:|---------------|---------------|
E:|---------------|---------------|

(riff 2)

e:|-----------------------------|
B:|-----------------------------|
G:|-----------------------------|
D:|-9-9-X--9-9-X-9--9-X--9-9-X--|  (4x)
A:|-7-7-X--7-7-X-7--7-X--7-7-X--|
E:|-----------------------------|

(riff 3)

e:|--------------------------------|
B:|--------------------------------|
G:|--------------------------------|
D:|-9-9-X-9-9-X-9-9-X-9-9-X-9-9-9--| (8x)
A:|-7-7-X-7-7-X-7-7-X-7-7-X-7-7-7--|
E:|--------------------------------|

(riff 4)

e:|---------------|---------------|
B:|---------------|---------------|
G:|---------------|---------------|
D:|-11--10--9--8--|-11--10--9--8--|
A:|-9---8---7--6--|-9---8---7--6--|
E:|---------------|---------------|


(intro)

(riff 1)

(riff 3)
I saw a dream That the world's disappeared
I thought I'd be Breaking down every rule
I saw a dream That the world's in a scheme
I thought I'd be Hiding out every clue

(riff 4 - 2x)
Here I am Watching all people's laughter
Here I am Watching those people

(riff 1)
I'm in love with a ghost It's a beautiful thing in the world
I'm in love with a ghost Such a beautiful thing in the world
(pós riff 1)

(riff 2)
I saw a dream That the world's disappeared
I thought I'd be Breaking down every rule
I saw a dream That the world's in a scheme
I thought I'd be Hiding out every clue

Here I am Watching all people's laughter
Here I am Watching those people

I'm in love with a ghost It's a beautiful thing in the world
I'm in love with a ghost Such a beautiful thing in the world

I'm in love with a ghost

TOP cifras de Beat Crusaders

  1. Day After Day
  2. E.m.o
  3. Moon On The Water (full Moon Sways)
  4. Cum On Feel The Noize
  5. Feel
  6. Love Dischord
  7. Moon On The Water (full Moon Sway)
  8. Tonight, Tonight, Tonight
  9. Yeah Yeah Yeah Yeah
  10. 99 Luft Balloons

Pela Web