Cifras Web
Becoming The Archetype

No Fall Too Far

Becoming The Archetype

8 acessos

Afinação|  C G C F A D


E|---------------------------------------------------------------|
B|---------------------------------------------------------------|
G|---------------------------------------------------------------|
D|-0-------------------------------------------------------------|
A|-0--8-7-3-55555555--8888--7777-55555555-8888-------------------|
E|-0-------------------------------------------------------------|



E|----------------------------------------------------------------|
B|----------------------------------------------------------------|
G|----------------------------------------------------------------|
D|-0--------------------------------------------------------------|
A|-0-8-7-3-55555555-8888-7777-55555555-8888-9-12------------------|
E|-0--------------------------------------------------------------|



E|--------------------------------------------------------------------------------------------------------------------|
B|--------------------------------------------------------------------------------------------------------------------|
G|--------------------------------------------------------------------------------------------------------------------|
D|-3p0-0-3p0-00-------------3p0-0-3p0-00------------3p0-0-3p0-00------------------------------------------------------|
A|-3p0-0-3p0-00--7-8888-777-3p0-0-3p0-00-7-8888-7-8-3p0-0-3p0-00-7-8888-777-------------------------------------------|
E|-3p0-0-3p0-00-------------3p0-0-3p0-00------------3p0-0-3p0-00------------       .     ..                 .     .. -|     ..




E|---------------------------|-----------------------------------------------|
B|---------------------------|-----------------------------------------------|
G|---------------------------|-----------------------------------------------|
D|-3p0-0-3p0-00--------------|-0---------------------------------------------|
A|-3p0-0-3p0-00-7-8888-9-12--|-0-8-7-3-55555555-8888-77-8-55555555-8888------|
E|-3p0-0-3p0-00--------------|-0---------------------------------------------|

       .     ..

E|-----------------------------------------------|
B|-----------------------------------------------|
G|-----------------------------------------------|
D|-0---------------------------------------------|
A|-0-8-7-3-55555555-8888-77-8-5555555-8888-9-12--|
E|-0---------------------------------------------|



E|----------------------------|
B|----------------------------|
G|----------------------------|
D|----------------------------|
A|---8-9----6-8--0h5h6-5h6h8--|
E|-00------------------------|

   .. .  ..  . .

TOP cifras de Becoming The Archetype

  1. Nights Sorrow
  2. Breathing Light
  3. Into Oblivion
  4. Endure Intro
  5. March Of The Dead
  6. The Epigone
  7. Elegy
  8. Self Existent
  9. Great Fall Intro
  10. No Fall Too Far

Pela Web