Cifras Web
B.J. Thomas

Rock'n'roll Lullaby

B.J. Thomas

44 acessos

Intro: G  C  D  C  G

G
She was just sixteen and all alone
C               Am
whem I came to be
D                      C
so we grew up together
                    G
My momma child and me

When things were bad

and she was scared
        C
but whenever I would cry
Am                       D
she'd calm my fears and dry my tears
             C              G
with that rock'n'roll lullaby

and she'd sing

Sha la la la la la la la la
        Am
It will be all right
C                   D
Sha la la la la la la la la
                    G
Let's just hold on tight
Sing it to me mama
My my my my mama
Sing it sweet and clear
          C
sing it sweet and clear
      D
oh, momma let me hear
            C       D      G
That old rock'n'roll lullaby

Solo:


|------------------------------|
|------12---12-12-10-8-10-8-10-|
|--12~-------------------------|
|------------------------------|
|------------------------------|
|------------------------------|



|-----------10/12-10--------------------------|
|--8-8-8-8-----------8-8-8-10/12----------8-8-|
|---------------------------------7-7/9-------|
|---------------------------------------------|
|---------------------------------------------|
|---------------------------------------------|



|---------------|
|---------------|
|--9-7----------|
|------9--7/1---|
|---------------|
|---------------|


G
we´ve made it through
the lonely days
C                         Am
But Lord the nigths were long
        D
and we dreamed of better mornings
C           D        G
when momma sing her song

Now I can't recall the words at all
C                           Am
And it don't make sense to try
         D
'Cause I just fell lots of love came through
      C             D      G
That old rock'n'roll Lullaby

and she'd sing
G
Sha la la la la la la la la
         Am
It will be alright
C                     D
Sha la la la la la la la la
             G
Let's just hold on tight
Sing it to me momma
my momma ma ma
C
Sing it sweet and clear oh
D
Momma let me hear that
 C             D      G
Old rock'n'roll Lullaby
G
Sha la la la la la la la la
        Am
It will be alright
C                  D
Sha la la la la la la la la
                     G
Let's just hold on tight


|--------------------------------------------------|
|----------------------------12(13)-12^10-----10^12|
|------------------------12----------------12------|
|-----------------5---7----------------------------|
|---------5---7------------------------------------|
|---3/7--------------------------------------------|



|---------------------(10)/12-10-------------------|
|^10----------8--8---------------------8--8-(10)/12|
|-----9--7^9-------9---------------7^9-------------|
|--------------------------------------------------|
|--------------------------------------------------|
|--------------------------------------------------|


|-10--------------------------------|
|----12--10------10-----------------|
|-----------9^12----12--9--7--------|
|----------------------------9--7---|
|---------------------------------10|
|-----------------------------------|

TOP cifras de B.J. Thomas

  1. Raindrops Keep Falling`on My Head
  2. Rock'n'roll Lullaby
  3. Oh Me Oh My
  4. Hooked on a feeling
  5. Raindrops Keep Fallin On My Head
  6. Suspicious Minds
  7. Raindrops Keep Falling on My Head
  8. This Love Is Forever
  9. Raindrops keep fallen on my head
  10. I Just Can't Help Believin'

Pela Web