Cifras Web
Bloc Party

Positive Tension Solo

Bloc Party

9 acessos

submitted by MuZzZz
*



E--------------------------------------------------|
B--------------------------------------------------|
G--12-----12-15-13-12------12----12--15-13-12------|
D-----13---------------13-----13-------------------|
A--------------------------------------------------|
E--------------------------------------------------|




E-11----------13-----------------------------------|
B-----14(16)------16(18)---15-16-------------------|
G---------------------------------15-15-13-15-12---|
D--------------------------------------------------|
A--------------------------------------------------|
E--------------------------------------------------|




E--------------------------------------------------|
B-----------------------13-------------------------|
G-12--10--8--10-----15------13--15--12--13------12-|
D-------------------------------------------15-----|
A--------------------------------------------------|
E--------------------------------------------------|




E--------------------------------------------------|
B--------------------------------------------------|
G----------------------------------10--------------|
D-13-12--10~~~~~-10-10-12-10-13-10----10--10-10-12-|
A--------------------------------------------------|
E--------------------------------------------------|



E--------------------------------------------------|
B-----------------15~~~~~~~~~~---------------------|
G----------10-----16~~~~~~~~~~---------------------|
D-10-13-10----10-----------------------------------|
A--------------------------------------------------|
E--------------------------------------------------|

TOP cifras de Bloc Party

  1. Vision Of Heaven Intro
  2. Uniform
  3. Srxt
  4. I Still Remember Intro
  5. Song For Clay Disappear Here
  6. Tulips
  7. Helicopter
  8. Once And Future King
  9. Rhododendron
  10. England

Pela Web