Cifras Web
Bloc Party

She's Hearing Voices

Bloc Party

7 acessos

* - Pinched Harmonic

Verse

e]--10-10-10-10-10-10-10-10-10-10-10-10-10-10-10-10-- 
b]--------------------------------------------------- 
g]--------------------------------------------------- 
d]--------------------------------------------------- 
a]------------------Repeat-Over----------------------
e]--------------------------------------------------- 

Pre Chorus

e]--5-5-5-5-5-5-5-5-5-5-5-5-5-5-5-5-----
b]--6-6-6-6-6-6-6-6-6-6-6-6-6-6-6-6-----
g]--7-7-7-7-7-7-7-7-7-7-7-7-7-7-7-7-----
d]--5-5-5-5-5-5-5-5-5-5-5-5-5-5-5-5-----
a]-------------------------------------- x2
e]-------------------------------------- 

e]--8-8-8-8-8-8-8-8-8-8-8-8-8-8-8-8-----
b]--6-6-6-6-6-6-6-6-6-6-6-6-6-6-6-6-----
g]--5-5-5-5-5-5-5-5-5-5-5-5-5-5-5-5-----
d]-------------------------------------- 
a]-------------------------------------- 
e]-------------------------------------- 

e]--5-5-5-5-5-5-5-5-5-5-5-5-5-5-5-5-----
b]--6-6-6-6-6-6-6-6-6-6-6-6-6-6-6-6-----
g]--5-5-5-5-5-5-5-5-5-5-5-5-5-5-5-5-----
d]--------------------------------------
a]-------------------------------------- 
e]-------------------------------------- 

Chorus

e]------------------------------------------------ 
b]--------------6-----------------6--------------- 
g]--5-5-5---5h7---7p5---5-5-5-5h7---5-7---(x4)----
d]------------------------------------------------ 
a]------------------------------------------------ 
e]------------------------------------------------ 

e]------------------------------------ 
b]--5-5-5---5-/-6-6-6----------------- 
g]--5-5-5---5-/-7-7-7----------------- 
d]------------------------------------ 
a]------------------------------------ 
e]------------------------------------ 

e]--5---6---8---8------------------- 
b]--6---6---6---6------------------- 
g]--7---7---5---5-------------------
d]--7---7--------------------------- 
a]---------------------------------- x2
e]----------------------------------

Picking

e]------------------------------------------------------------------------------- 
b]------6---6-5h6-------6---6-5h6--------8---8-6h8------------13----13-13p11-10-- 
g]----7---7-------7---7---7-------7----9---9-------9-------10----10-------------- 
d]--7---------------8---------------10---------------10-12----------------------- 
a]------------------------------------------------------------------------------- x2
e]-------------------------------------------------------------------------------

Solo 

e]------------------------------------------------------------- 
b]-------------------------6p0-8p0-10p0-11p0-11p10-------------
g]--5--5-5-5-5-5-5h7~--5h7-------------------------10---------- 
d]-----------------------------------------------------10-12--- 
a]------------------------------------------------------------- 
e]------------------------------------------------------------- 

e]--------------------------------------------------------------- 
b]--10h11h13----------------------------------------------------- 
g]-----------10-10h12p10-----5h7p5-----5-5-5-5-5--5h7~----------- 
d]-----------------------10--------7----------------------------- 
a]--------------------------------------------------------------- 
e]--------------------------------------------------------------- 

e]----------------------------------------------------------------- 
b]--3-3-3-x-3-3-3-x-3-3-3-x-3-3-3-x-3-3-3-x-3-3-3-x-3-3-3-x-3-3-3--
g]--5-5-5-x-5-5-5-x-5-5-5-x-5-5-5-x-5-5-5-x-5-5-5-x-5-5-5-x-5-5-5--
d]----------------------------------------------------------------- 
a]----------------------------------------------------------------- 
e]----------------------------------------------------------------- 

e]--------------------------------------------------------------------------------- 
b]--------------------------------------------------------------------------------- 
g]--12b12b12b12b12b12b12b12-12p10----10------------12p10----10--------------------- 
d]--------------------------------12----10h12p10---------12----10h12p10------10-12- 
a]-----------------------------------------------12---------------------12-12------
e]--------------------------------------------------------------------------------- 

e]----------------------------------------------------------------------------- 
b]----------------------------------------------------------------------------- 
g]--10-10-10-12-12-12-10-10-10-7-7-7-7-7-5-5-5-7-7-7-5-5-5-2-2-2-2-2-5-5-5-2--- 
d]----------------------------------------------------------------------------- 
a]----------------------------------------------------------------------------- 
e]----------------------------------------------------------------------------- 

e]----------------------------------------------------------------------------- 
b]----------------------------------------------------------------------------- 
g]--5-5h7-7-5-5h7-7-5-5h7-7-5-5h7-7-/8/9/10/11/12/13/14/15/16/17/18/19-\------- 
d]----------------------------------------------------------------------------- 
a]----------------------------------------------------------------------------- 
e]----------------------------------------------------------------------------- 

TOP cifras de Bloc Party

  1. Vision Of Heaven Intro
  2. Uniform
  3. Srxt
  4. I Still Remember Intro
  5. Song For Clay Disappear Here
  6. Tulips
  7. Helicopter
  8. Once And Future King
  9. Rhododendron
  10. England

Pela Web