Cifras Web
Bootsy Collins

Stretchin Out

Bootsy Collins

9 acessos

Tabbed By:  Bruce Gumm (*)
Tunging: Standard

Play this with a Doctor Q. Effect pedal

Main Riff
G-------------------------------------'--------------------|
D--0-2-----4-5------4-5-----4-5---2---'--------------------|
A---------------4-5-----4-5-----------'--------------------|
E------2/3----------------------------'--------------------|

G-------------------------------------'-|
D--0-2-----4-5----55--4--2-0-2--------'-|
A-------------------------------------'-|
E------2/3----------------------------'-|

chorus I
G----------------'-------------------'-|
D----2-----4-5---'---2----4-5--5--7--'-|
A----------------'-------------------'-|
E------33--------'-----33------------'-|

Bridge

G------------------------------------------------------------|
D---2--222--222-222-222--1-----------------2---4-444-444-4-2-|
A---------------------------5-555-555-555--------------------|
E------------------------------------------------------------|

G-----------------'
D-2--4--5---------'
A---------5--4--2-'
E-----------------'

Top cifras de Bootsy Collins

  1. Stretchin Out
  2. Ahh The Name Is Bootsy Baby
  3. Hollywood Squares

Pela Web