Cifras Web
Carpathian Forest

Lunar Nights

Carpathian Forest

10 acessos

Transcribed by Ivan Bissoli (*)

Riff 1 Guitar 1


E |--------------------0----------------------------------------------------------|
B |--------------------------0----------------------------------------------------|
G |-------------------------------------------------------------------------------|
D |--------------2----------------------------------------------------------------|
A |--------2----------------------------------------------------------------------|
E |--0----------------------------------------------------------------------------|


Guitar 2 

E |-------------------------------------------------------------------------------|
B |-------------------------------------------------------------------------------|
G |-------------------------------------------------------------------------------|
D |-------------------------------------------------------------------------------|
A |---3----------2----------------------------------------------------------------|
E |---1----------0----------------------------------------------------------------|



E |-------------------------------------------------------------------------------|
B |-------------------------------------------------------------------------------|
G |-------------------------------------------------------------------------------|
D |-------5---------3------------2------------------------5---------3---------2---|
A |------------------------3-----2------------------------5---------3---------2---|
E |--3---------1-----------------0------------------------3---------1---------0---|



E |-------------------------------------------------------------------------------|
B |-------------------------------------------------------------------------------|
G |-------------------------------------------------------------------------------|
D |-------------------------------------------------------------------------------|
A |-------------------------------------------------------------------------------|
E |-0-----0-----6-----11-----9-----8-----6-----4-----2-----1-----0----------------|


Riff 2

E |-------------------------------------------------------------------------------|
B |-------------------------------------------------------------------------------|
G |-------------------------------------------------------------------------------|
D |-------------------------------------------------------------------------------|
A |---------------------------------------------------3---2---3---2---------------|
E |--0---0---0---0---0---0---0---2---3---0---0---------------------3--------------|



E |-------------------------------------------------------------------------------|
B |-------------------------------------------------------------------------------|
G |-------------------------------------------------------------------------------|
D |-------------------------------------------------------------------------------|
A |---------------------------------------------------2---1-----------------------|
E |--0---0---0---0---0---0---0---2---3---0---0------------3-----------------------|


Riff 3

E |-------------------------------------------------------------------------------|
B |-------------------------------------------------------------------------------|
G |-------------------------------------------------------------------------------|
D |-------------------------------------------------------------------------------|
A |---------------------------------3---2--------1---1---1------------------------|
E |--0---0---0---2---3---0---0------------0-----------------3---------------------|


Riff 4

E |----------------------------------------------------------------------------------------------|
B |----------------------------------------------------------------------------------------------|
G |----------------------------------------------------------------------------------------------|
D |----------------------------------------------------------------------------------------------|
A |----------------------------------------------------------------------------------------------|
E |0--0--0--0--0--0--0--0--0--0--0--0--0--0--0--0--0--0--0--0--3--3--3--3--11--11--11--11--11--11|



E |-------------------------------------------------------------------------------|
B |-------------------------------------------------------------------------------|
G |-------------------------------------------------------------------------------|
D |-------------------------------------------------------------------------------|
A |-------------------------------------------------------------------------------|
E |-11--11--11--11--11--11--11--11--11--11--11--11--11--11--15--15--15--15--------|


Riff 5
E |----------------------------------------------------------------------------------------------|
B |----------------------------------------------------------------------------------------------|
G |----------------------------------------------------------------------------------------------|
D |----------------------------------------------------------------------------------------------|
A |----------------------------------------------------------------------------------------------|
E |5--5--5--5--5--5--5--5--5--5--5--5--5--5--5--5--5--5--5--5--5--5--5--5--14--14--14--14--14--14|

TOP cifras de Carpathian Forest

  1. Carpathian Forest
  2. The Woods Of Wallachia
  3. Angel And The Sodomizer
  4. Knokkelmann
  5. Bloodlust And Perversion
  6. Journey Through The Cold Moors Of Svarttjern
  7. Lunar Nights
  8. Black Shining Leather
  9. Dtwteasotld
  10. One With The Earth

Pela Web