Cifras Web

Eu te louvarei

Comunidade da Graça de São Paulo

76 acessos

Intro: E B C#m A (4x)

E B C#m A
És Tu única razão da minha adoração, Oh Jesus.
E B C#m A ( A5 G#5 ) "Passagem de notas..."
eés Tu única esperança que anelo ter, Oh Jesus

( A5 G#5 )
E|--------|
B|--------|
G|--------|
D|--------|
A|--7--6--|
E|--5--4--|

F#m B
confiei em Ti, fui ajudado
F#m B
tua salvação tem me alegrado,
E B
hoje há gozo em meu coração
C#m A B
com meu canto Te louvarei.

Refrão:
F# C# D#m B
Eu Te louvarei, Te glorificarei
F# C# B
eu Te louvarei meu bom Jesus. (2x)

Volta para o início (sem intro) depois segue...

E5 F#5 G#5 A5 G#5 F#5 E5 C#5 B5 (B7) (2x)

E5 F#5 G#5 A5 G#5 F#5 E5 C#5 B5
em todo tempo Te louvarei
E5 F#5 G#5 A5 G#5 F#5 E5 C#5 B5
em todo tempo Te louvarei

E|------------------------------------|
B|------------------------------------|
G|-9----11--13--14--13--11--9--6---4--|
D|-x----x---x---x---x---x---x--x---x--|
A|-7----9---11--12--11--9---7--4---2--|
E|------------------------------------|

E|--7--7--7-7--|
B|--7--7--7-7--|
G|--x--X--X-X--|
D|-------------|
A|-------------|
E|-------------|

E|------------------------------------|
B|------------------------------------|
G|-9----11--13--14--13--11--9--6---4--|
D|-x----x---x---x---x---x---x--x---x--|
A|-7----9---11--12--11--9---7--4---2--|
E|------------------------------------|

(sobe 1 tom)

Interlúdio: G D Em C
G D C

Refrão:
G D Em C
Eu Te louvarei, Te glorificarei
G D C
eu Te louvarei meu bom Jesus

Top cifras de Comunidade da Graça de São Paulo

  1. Eu te louvarei