Cifras Web
Corrosion Of Conformity

The Snake Has No Head

Corrosion Of Conformity

12 acessos

TUNING: Tune 1 whole step down (D)

INTRO:

d |----------------------------------------------------------|
A |----------------------------------------------------------|
F |----------------------------------------------------------|
C |----------------------------------------------------------|
G |----------------------------------------------------------|
D |--0-0-3-0-3-7p5-5p-3h5--3--3--0--3--0-5p3-3p0--0----------|



d |----------------------------------------------------------|
A |----------------------------------------------------------|
F |----------------------------------------------------------|
C |-----------------------------------------------5---7---8--|
G |-----------------------------------------------5---7---8--|
D |-0--0--3--0--3--7p5--5p3--3h5--3--3--0--3--0---3---5---6--|


VERSE:
GUITAR 1: Play all the way through

d |----------------------------------------------------------|
A |----------------------------------------------------------|
F |----------------------------------------------------------|
C |-2--2--5--2--5--------------------------------------------|
G |----------------------------------------------------------|
D |----------------------------------------------------------|


GUITAR 2: Before CHORUS play same 3 chords as GUITAR 1

d |----------------------------------------------------------|
A |----------------------------------------------------------|
F |----------------------------------------------------------|
C |-5--5--2--5--2--------------------------------------------|
G |----------------------------------------------------------|
D |----------------------------------------------------------|


CHORUS:
RIFF A:
GUITAR 1:

d |----------------------------------------------------------|
A |----------------------------------------------------------|
F |-5---7-5-7-7\---------------------------------------------|
C |-5-------------5---7---8----------------------------------|
G |-3-------------5---7---8----------------------------------|
D |---------------3---5---6----------------------------------|


GUITAR 2:

d |----------------------------------------------------------|
A |----------------------------------------------------------|
F |-5/7--7--X--7---5--5--7--X--X--7--7---5/7--7--X--7---7----|
C |-5/7--7--X--7---5--5--7--X--X--7--7---5/7--7--X--7---7----|
G |-3/5--5--X--5---3--3--5--X--X--5--5---3/5--5--X--5---5----|
D |----------------------------------------------------------|



d |----------------------------------------------------------|
A |----------------------------------------------------------|
F |----------------------------------------------------------|
C |--5---7---8-----------------------------------------------|
G |--5---7---8-----------------------------------------------|
D |--3---5---6-----------------------------------------------|


RIFF B:
GUITAR 1:

d |----------------------------------------------------------|
A |----------------------------------------------------------|
F |-5---7-5-7-7\---------------------------------------------|
C |-5-------------5---7---8----------------------------------|
G |-3-------------5---7---8----------------------------------|
D |---------------3---5---6----------------------------------|


GUITAR 2:

d |----------------------------------------------------------|
A |----------------------------------------------------------|
F |-5/7--7--X--7---5--5--7--X--X--7--7---5/7--7--X--7---7----|
C |-5/7--7--X--7---5--5--7--X--X--7--7---5/7--7--X--7---7----|
G |-3/5--5--X--5---3--3--5--X--X--5--5---3/5--5--X--5---5----|
D |----------------------------------------------------------|



d |----------------------------------------------------------|
A |----------------------------------------------------------|
F |----------------------------------------------------------|
C |----------------5-----------------------------------------|
G |-7--7--7--5-----------------------------------------------|
D |-------------7--------------------------------------------|


AFTER 1ST/3RD CHORUS:
RIFF C:
GUITAR 1:

d |----------------------------------------------------------|
A |-5--5--8--5--8--------------------------------------------|
F |----------------------------------------------------------|
C |----------------------------------------------------------|
G |----------------------------------------------------------|
D |----------------------------------------------------------|


GUITAR 2: Play low D-String notes for the first time only.

d |----------------------------------------------------------|
A |-8--8--5--8--5--------------------------------------------|
F |----------------------------------------------------------|
C |----------------------------------------------------------|
G |----------------------------------------------------------|
D |--------------------5-5-5-3-0-----------------------------|


RIFF D:
GUITAR 1:

d |-0--0--3--0--3--------------------------------------------|
A |-0--0--3--0--3--------------------------------------------|
F |----------------------------------------------------------|
C |----------------------------------------------------------|
G |----------------------------------------------------------|
D |----------------------------------------------------------|


GUITAR 2:

|-3--3--0--3--0----------------------------------------------|
|-3--3--0--3--0----------------------------------------------|
|------------------------------------------------------------|
|------------------------------------------------------------|
|----------------------------7-------------------------------|
|------------------7p5-5-5p3---------------------------------|


Repeat RIFF D 3 times, than play:

d |----------------------------------------------------------|
A |----------------------------------------------------------|
F |----------------0-----------------------------------------|
C |-------------3--------------------------------------------|
G |-5p3p0--3p0-----------------------------------------------|
D |----------------------------------------------------------|



d |----------------------------------------------------------|
A |----------------------------------------------------------|
F |-------------0--2-----------------------------------------|
C |----------------------------------------------------------|
G |-5p3p0--3p0-----------------------------------------------|
D |----------------------------------------------------------|


d |----------------------------------------------------------|
A |----------------------------------------------------------|
F |-------------2--5-7\--------------------------------------|
C |----------------------------------------------------------|
G |-5p3p0--3p0-----------------------------------------------|
D |----------------------------------------------------------|

TOP cifras de Corrosion Of Conformity

  1. Stone Breaker Intro
  2. Albatross
  3. Damned For All Time
  4. Stare Too Long
  5. In The Arms Of God
  6. King Of The Rotten
  7. Señor Limpio
  8. The Snake Has No Head
  9. Albatross Intro
  10. Bottom Feeder

Pela Web