Cifras Web
Cream

Toad

Cream

12 acessos

Composer: Ginger Baker
Tabbed by: ecfanrm826
The tab is a little confusing but you'll get it if you listen to the song
The opening chord is an A Form E power Chord Which is X799XX
Next it's

E|-----------------------|
B|-------------------0---|
G|-2-0-----------0-2-----|
D|-----2-----0-2---------|
A|---------2-------------|
E|-----------------------|

Before the solos Guitar and drums it's

E----------|
B----------|
G----------|
D----------|
A-2-0------|
E-----3-0--|
the solo Clapton is playing with feedback the during parts



    ~~~  ~~~  ~~~                                                ~~~

E-------------------------------------------------------------------|
B-------------------------------------------------------------------|
G------------14--12-------------------------------------------------|
D-12---14------------14-12h14p12--12---------------------------14---|
A------------------------------------14------------------12-14------|
E-----------------------------------------15-12---15-12-------------|


The closing Chord is E7#9 Which is X7678X
| b  bend
| r  release
| /  slide up
| \  slide down
| h  hammer-on
| p  pull-off
| ~  vibrato
| +  harmonic

TOP cifras de Cream

  1. Sunshine Of Your Love
  2. Deserted Cities Of The Heart
  3. Politition
  4. Blue Condition
  5. Politician
  6. Badge Solo
  7. Sitting On The Top Of The World
  8. Rock Is Important
  9. Sitting On Top Of The World
  10. Were Going Wrong

Pela Web