Cifras Web
Dio

Mystery

Dio

19 acessos

g-----------------|-----------------|-----------------|-----------------|-----------------|-----------|
d-----------------|-----------------|-----------------|-----------------|-----------------|-----------|
a--8--------------|-----------------|--8-----6--------|-----------------|--8-----6-----4--|--3-----1--|
e--------8-----6--|--1-----5-----6--|--------------6--|--1-----4-----5--|-----------------|-----------|

                              can you...              can you...                 storm...
                           we are...                  we are...                  burn...
|--7--5--3--------------|--------------------------|--------------------------|--------------------------|
|-----------5--3--------|*-------------------------|--------------------------|--------------3--2--------|
|-----------------5--3--|*-5--5--5--5--5--5--5--5--|--3--3--3--3--3--3--3--3--|--1--1--1--1--------3--5--|
|-----------------------|--------------------------|--------------------------|--------------------------|

                        does it...                 does...                    tell...
                        well...                    no one...
|--------------------|--------------------------|--------------------------|--------------------------|
|--------------------|--------------------------|--------------------------|--------------------------|
|--5--5-----3-----3--|--5--5--5--5--5--5--5--5--|--3--3--3--3--3--3--3--3--|--1--1--1--1--1--1--1--1--|
|--------5-----5-----|--------------------------|--------------------------|--------------------------|
                              
                              when...                    should...                  don't...
                              just...                                               see...
|--------------------------|--------------------------|--------------------------|-------------------------|
|--------------------------|--------------------------|--------------------------|--------------3--2-------|
|--1--1--1--1--1--1--1--1--|--5--5--5--5--5--5--5--5--|--3--3--3--3--3--3--3--3--|--1--1--1--1--------3--5-|
|--------------------------|--------------------------|--------------------------|-------------------------|

                           and is...         always...
|-----------------------|-----------------|--------------|--------------|--------------------------|
|-----------------------|-----------------|--------------|--------------|--------------------------|
|--5--5-----5-----5-----|-----------------|-----1--2--3--|--3-----3-----|--3--3--3--3--3--3--3--3--|
|--------5-----5-----5--|--3-----2--3--5--|--5-----------|-----------3--|--------------------------|

|-----------------|--------------|-----------------|--------------|-----------------|
|-----------------|--------------|-----------------|--------------|-----------------|
|--8--------------|--------------|--8--------------|--------------|--8-----7-----5--|
|--------8-----6--|--6--8--6--8--|--------5-----6--|--6--8--6--8--|-----------------|

                   1______________________
|-----------------|-----------------------|--------------------------|------------------|
|-----------------|-----------------------|--------------------------|------------------|
|--5-----3-----1--|--1--1--1--1--1--1--1--|--1--3--3--3--3--3--3--3--|--8---------------|
|-----------------|-----------------------|--------------------------|--------8------6--|

                                                    2______________
|--------------|-----------------|-----------------|--------------------------|--------------------------|
|--------------|-----------------|----------------*|--------------------------|--------------------------|
|--------------|--8--------------|--------3-----5-*|--1--1--1--1--1--1--1--1--|--1--1--1--1--1--1--1--1--|
|--6--8--6--8--|--------5-----6--|--6--------------|--------------------------|--------------------------|

|--------------------------|--------------------------|--------------------------|--------------------|
|--------------------------|--------------------------|--------------3--2--------|--------------------|
|--5--5--5--5--5--5--5--5--|--3--3--3--3--3--3--3--3--|--1--1--1--1--------3--5--|--5--5--5--5-----3--|
|--------------------------|--------------------------|--------------------------|--------------5-----|

|--------------------------|--------------------------|--------------------------|-------------------------|
|--------------------------|--------------------------|--------------------------|-------------------------|
|--5--5--5--5--5--5--5--5--|--3--3--3--3--3--3--3--3--|--1--1--1--1--0--0--0--0--|--------------3--3--3--3-|
|--------------------------|--------------------------|--------------------------|--3--3--3--3-------------|

|--------------------------|--------------------------|--------------------------|
|--------------------------|--------------------------|--------------3--2--------|
|--5--5--5--5--5--5--5--5--|--3--3--3--3--3--3--3--3--|--1--1--1--1--------3--5--|
|--------------------------|--------------------------|--------------------------|

|--------------------------|-----------------|--------------------|-----------------------|--------|
|--------------------------|-----------------|--------------------|-----------------------|--------|
|--5--5--5--5--5-----3-----|-----------------|-----------1--2--3--|--3--3--3--3--3--3-----|--3--3--|
|-----------------5-----5--|--3-----2--3--5--|--5-----5-----------|--------------------3--|--------|

|--------------|-----------------|--------------|
|--------------|-----------------|--------------|
|--8-----6-----|-----------------|--------3--3--|
|-----------6--|--1-----4-----6--|--6-----------|

(coda)                                                                       not what...
|--------------------------|--------------------------|-----------------|--------------|
|--------------------------|--------------------------|*----------------|--------------|
|--1--1--1--1--1--1--1--1--|--1--3--3--3--3--3--3--3--|*-8--------------|--------------|
|--------------------------|--------------------------|--------8-----6--|--6--8--6--8--|

   to me                                              like you...
|-----------------|--------------|-----------------|-----------------|-----------------------|
|-----------------|--------------|-----------------|-----------------|-----------------------|
|--8--------------|--------------|--8-----7-----5--|--5-----3-----1--|--1--1--1--1--1--1--1--|
|--------5-----6--|--6--8--6--8--|-----------------|-----------------|-----------------------|

|--------------------------|-----------------|------------|-----------------|
|--------------------------|-----------------|------------|-----------------|
|--1--3--3--3--3--3--3--3--|--8--------------|------------|--8--------------|
|--------------------------|--------8-----6--|--6--8---8--|--------5-----6--|

|-------------------|-----------------|--------------|-----------------|-----------------------|
|-------------------|-----------------|--------------|-----------------|----------------------*|
|-------------------|--8--------------|--------------|-----------------|----------------------*|
|--6--6---6--8---8--|--------8-----6--|--6--8--6--8--|--8-----6-----8--|--8--8--8--8--8--8--8--|

TOP cifras de Dio

  1. This Is Your Life
  2. As Long As It's Not About Love
  3. One Night In The City
  4. Sacred Heart
  5. Hungry For Heaven Intro
  6. Dream Evil
  7. Night People
  8. Scream
  9. Mystery
  10. Sunset Superman

Pela Web