Cifras Web
Dir en Grey

Byo Shin Intro

Dir en Grey

10 acessos

==================================
---E-mail - M*, K*

================
Riff #1         ( This Riff Is 150% Accurate! )
========
--Guitar #1 (After Drum Roll_)


E|-------------------------------------------
b|-------------------------------------------
g|-------------------------------------------
d|2-2-2--2-2-2/4-4-4--4-4--------------------
a|2-2-2--2-2-2/4-4-4--4-4--------------------
D|2-2-2--2-2-2/4-4-4--4-4--------------------



--Guitar #2 ( After Guitar One Plays The Riff #1 Eight Times_)


E|2----4--5-7-2----4--5-4-2------------------
b|-------------------------------------------
g|-------------------------------------------
d|-------------------------------------------
a|-------------------------------------------
D|-------------------------------------------


Note On Riff#1: Play Twice. You Don't Have To Repeat The Last "2" When Playing
It The Second Time ( And So On )

======

Riff#1 --Bridge--

=========


E|-------------------------------------------
b|-------------------------------------------
g|-------------------------------------------
d|5-----4------------------------------------
a|5-----4------------------------------------
D|5-----4------------------------------------


Note On Riff#1's Bridge : ....That's All, I Guess, It's Pretty Accurate Too.


The Rest Of The Song Is Very Hard To Tab, Yeah..I...Don't Have A
Very Good Ear.

TOP cifras de Dir en Grey

  1. Kasumi
  2. Rasetsu Koku
  3. The Final
  4. Akuro No Oka Solo
  5. Final
  6. 304
  7. Byou Shin
  8. C
  9. Conceived Sorrow
  10. Embryo

Pela Web