Cifras Web
Eddie

Dessa Vez Foi Demais

Eddie

5 acessos

Parte 1 - 2x

e|------------------------------------|--------------------------------|-----------------------------|-------------------------------|
B|-----------9-11-9-------------11-9--|----------8-9-8------------9-8--|---------6-8-6----------8-6--|---------4-6-4----------5p7-5--|
G|-----10-12--------12-10-9-----------|-----8-10-------10-8-7----------|-----7-8-------8-7-5---------|-----5-7-------7-5-4-----------| 
D|------------------------------------|--------------------------------|-----------------------------|-------------------------------|
A|------------------------------------|--------------------------------|-----------------------------|-------------------------------|
E|------------------------------------|--------------------------------|-----------------------------|-------------------------------|

Parte


e|-------------------6----------------|-----------------6---6p8-6------|-------------7p8-7----------------|
B|---------------------9--8-6-8-------|-------------------9-------8----|--6-8-6---8---------9-8-6--6------|
G|--3p5-3--3-3-5-6-7------------------|3p5-3--3-3-5-6-7----------------|8-------8---------------------8--8|
D|------------------------------------|--------------------------------|----------------------------------|
A|------------------------------------|--------------------------------|----------------------------------|
E|------------------------------------|--------------------------------|----------------------------------|

		
Parte 3									2x

e|---------------------------------------------------------------------------------------|
B|--6-8-6----8--6-------------6------6---------------------------------------------------|
G|8-------8-------8-7-----7-8---8-7-----8-7-5-------5--7-8-7-5-----7p8-7-5-4-----3-4-5---|
D|-------------------------------------------------------------6-------------------------|
A|---------------------------------------------------------------------------------------|
E|---------------------------------------------------------------------------------------|

TOP cifras de Eddie

  1. Pode Me Chamar Que Eu Vou
  2. O Baile
  3. Lealdade
  4. Bairro Novo/casa Caiada
  5. É de Fazer Chorar
  6. Desequilíbrio
  7. Danada
  8. Me Diga o Que Não Foi Legal
  9. Ela Vai Dançar
  10. The Calling Of Death

Pela Web