Cifras Web
Emicida

Sol de Giz de Cera

Emicida

33 acessos


E|----------------------------------------------------------------------------
B|-----------------------------------4---------8---8-----8---8----------------
G|---------------------------------5---------7---7-----7---7----------5---5---
D|-----------------------------------------------------------------------8---8
A|----------------------------------------------------------------------------
E|----------------------------------------------------------------------------


Ela quer me contar um negócio sobre
cada pé de feijão que brotou no algodão,
não após dar cada detalhe do passeio dos caracóis.


E|----------------------------------------------------------------------------
B|-----------------------------------8---8-----8---8-----8---8----------------
G|---------------------------------8---8-----7---7-----7---7----------5---5---
D|-----------------------------------------------------------------------8---8
A|----------------------------------------------------------------------------
E|----------------------------------------------------------------------------


Voa sorrindo, brinca no vento.
Eu vi que o mundo pode ser velho e novo ao mesmo tempo.
Viro rei, pirata e samurai, em resumo, no rumo, papai.

E|----------------------------------------------------------------------------
B|-----------------------------------4---4-----4---4-----8---8----------------
G|---------------------------------5---5----5---5-----7---7----------5---5---
D|-----------------------------------------------------------------------8---8
A|----------------------------------------------------------------------------
E|----------------------------------------------------------------------------


Sou eu quem mata o leão, quem vence o dragão,
ufa, enfrenta a vida dura
Dom Quixote doidão, de espada na mão

E|----------------------------------------------------------------------------
B|-----------------------------------4-----8-----8---8---8--------------------
G|---------------------------------5---5/7-----8---7---7---5---5--------------
D|-----------------------------------------------------------8---8------------
A|----------------------------------------------------------------------------
E|----------------------------------------------------------------------------


e ainda volto pra casa com a mistura, cantando:
Pa pa pa para, pa pa pa para (4x)

(Pausa)

Menos um dente, joelho ralado e eu atrás tipo um velho,
cuidado, cuidado.
Cuidado pa pai, ó ó, vem vem, só só, vem vem, dó dó.


E|----------------------------------------------------------------------------
B|-----------------------------------8---8-----8---8-----8---8----------------
G|---------------------------------8---8-----7---7-----7---7----------5---5---
D|-----------------------------------------------------------------------8---8
A|----------------------------------------------------------------------------
E|----------------------------------------------------------------------------


O cadarço deu um nó, pula como quem flutua
e fala de abelha, bala, olha a lua.
O cachorro comeu a canetinha de sua alteza,
princesa, cosquinha.


E|----------------------------------------------------------------------------
B|-----------------------------------4---4-----4---4-----8---8----------------
G|---------------------------------5---5----5---5-----7---7----------5---5---
D|-----------------------------------------------------------------------8---8
A|----------------------------------------------------------------------------
E|----------------------------------------------------------------------------


Sou eu quem mata o leão, quem vence o dragão,
ufa, enfrenta a vida dura
Dom Quixote doidão, de espada na mão
e ainda volto pra casa com a mistura, cantando:
Pa pa pa para, pa pa pa para (4x)

E|----------------------------------------------------------------------------
B|-----------------------------------4-----8-----8---8---8--------------------
G|---------------------------------5---5/7-----8---7---7---5---5--------------
D|-----------------------------------------------------------8---8------------
A|----------------------------------------------------------------------------
E|----------------------------------------------------------------------------

TOP cifras de Emicida

  1. Papel, Caneta e Coração
  2. Alma Gemea
  3. Zoião
  4. Sol de Giz de Cera
  5. Samba do Fim do Mundo
  6. AmarElo (part. Majur e Pabllo Vittar)
  7. Eu Gosto Dela
  8. Triunfo
  9. Hoje Cedo
  10. Trepadeira

Pela Web