Cifras Web
Eric Johnson

Boogie King

Eric Johnson

7 acessos


|---------------------|----------|-----------------------|----------|
|----11--13b15-13b15--|----------|--13b15--13--11----11--|----------|
|-12------------------|----------|----------------12-----|----------|
|---------------------|----------|-----------------------|----------|
|---------------------|------3---|-----------------------|------3---|
|---------------------|-3-6----3-|-----------------------|-3--6---3-|



|-------------------------|---------|-------------------|----------|
|-------------------11----|---------|-------------------|----------|
|----------10-12-12----12-|---------|-------------------|----------|
|-10-12-12----------------|-----3---|--14b15--12--------|----------|
|-------------------------|-3-6---3-|------------15--13-|------3---|
|-------------------------|---------|-------------------|-3--6---6-|




|-------------------------|----------|--------------------|---------|
|-------------------------|----------|--------------------|---------|
|----------10-10----------|----------|-------12-12-15-12--|---------|
|----10-12-------12-10-12-|-----3----|-14b15--------------|---------|
|-12----------------------|-3-6---3--|--------------------|-----3---|
|-------------------------|----------|--------------------|-3-6---3-|




|--------------------------|---------|--------------------|---------|
|-13b15-13--11-13b15 13b15-|---------|-13b15-13-11-----11-|---------|
|--------------------------|---------|------------12-12---|---------|
|--------------------------|---------|--------------------|---------|
|--------------------------|-----3---|--------------------|-----3---|
|--------------------------|-3-6---3-|--------------------|-3-6---3-|




|--------------------------|--------|------------------|---------|
|--------------------------|--------|------------------|---------|
|----10-12--10-------------|--------|------------------|---------|
|-12-----------12-10-------|-----3--|--14b15--12-------|---------|
|--------------------13-10-|-3-6--3-|------------15-13-|-----3---|
|--------------------------|--------|------------------|-3-6---3-|




|-------------------------|----------------------------------------|
|-------------------------|----------------------------------------|
|----------10-10----------|--------7----5--------------------------|
|----10-12-------12-10-12-|------5-7--3-5-3-5-------3-5--------3-5-|
|-12----------------------|-5--8---5----3---5-----5---------5------|
|-------------------------|-----------------3---6-------3-6--------|



|-------------------------|--3-----3-------------------------|
|-------------------------|------6---3-6-3-------------------|
|----0--0-----------------|----------------5b7r5-p3----5-3---|
|-5--0--0-----------------|-------------------------5------5-|
|-5---------------3-------|----------------------------------|
|-3--------6-3--6---6-3---|----------------------------------|



|------------------------|----------|-------------------------------|
|------------------------|----------|--13b15-13-11-13b15-13b15------|
|----0--0----------------|----------|-------------------------------|
|-5--0--0----------------|------3-5-|-------------------------------|
|-5--------------3-------|----5-----|-------------------------------|
|-3-------6-3--6---6-3---|--6-------|-------------------------------|




|---------|
|---------|
|---------|
|---------|
|-----3---|
|-3-6---3-|




|---------------------|---------|---13-15--13------------|--------|
|-13b15-13-11------11-|---------|-15---------15-13-------|--------|
|-------------12-12---|---------|------------------15-12-|--------|
|---------------------|---------|------------------------|-----3--|
|---------------------|-----3---|------------------------|-3-6---3|
|---------------------|-3-6---3-|------------------------|--------|




|----------------|--------|-----------------------|
|----------------|--------|------------10---------|
|----------------|--------|---------10----10------|
|-14b15-12-------|--------|----10-12--------10-12-|
|----------15-13-|-----3--|--12-------------------|
|----------------|-3-6--3-|-----------------------|





|----------------------------------------------------------------|
|----------------------------------------------------------------|
|-------7----5--------------------------------0-0--------------0-|
|-----5-7--3-5--3-5--------3-5-------3-5---5--0-0--------------0-|
|-5-8---5----3----5------5---------5-------5-------------3-------|
|-----------------3----6-------3-6---------3-------6-3-6---6-----|




|---------15-----------------------------------------------------|
|-18b20------18-15-------18-15-----------------------------------|
|------------------15b17-------17-15-----17-15-------------------|
|------------------------------------17-------17-----------------|
|--------------------------------------------------15--13--------|
|---------------------------------------------------------15-15--|




|------------------------------------------------------------------|
|------------------------------------------------------------------|
|-0-0---------------0--0-----------7-------------------------------|
|-0-0-----------5---0--0---------3-5-----5-5------5---5---5-5------|
|-----------3---5--------------5-------8---5----8---7---5---5------|
|-----6-3-6---6-3--------6-3-6-------------3----------------3------|




|----------------------------------------------------6--------------|
|-------------------------------------------------------------------|
|----------------------------3--3--3-------------7\5----------------|
|--------------------5-3-5----5--5--5---3-5--------------3-5--5-5---|
|-5/8-b10r8b10r8/3--------------------------------------------------|
|-------------------------------------------------------------------|




|--------------------------------6--|-------------------------------|
|---------11b-----------------------|-------------------------------|
|-7\5/10----------3------7\5--------|-------------------------------|
|-------------3-5---5---------------|-5-3-3--------2------2---------|
|-----------------------------------|---------0h3-----0h2-----------|
|-----------------------------------|-------------------------------|




|-----------------|-----------------------|---------|
|-----------------|-----1---1--------1----|---------|
|---------3---3---|-----------------------|---------|
|--5-3-5----5---5-|-2h3---2----2-2h3----2-|----3-5--|
|-----------------|-----------------------|--5---5--|
|-----------------|-----------------------|------3--|




|-----------|----------------|-------------------------------------|
|-----------|----------------|----1---1--1-------1---1--1----------|
|-----3-----|----------3-----|-------------------------------------|
|-3-5---5---|------------5---|-2h3---2---2----2h3---3---2--2----3-5|
|-----------|----------------|--------------------------------5----|
|-----------|----------------|-------------------------------------|


         2:50

|---------------------------|
|-------------3~~~---3------|
|-----3-------3~~~---3------|
|-3-5--5--------------------| then some more fooling around
|---------------------------| in G at the third and fifth frets,
|---------------------------| hard to tell what he's playing



 3:13

|-----3-3----3--6-3-|---3-3-3---3-3-3-|---6h8-6h8-6h8--6h8--|
|---5------5--------|-5-------5-------|---------------------|
|-------------------|-----------------|---------------------|
|-------------------|-----------------|---------------------|
|-------------------|-----------------|---------------------|
|-------------------|-----------------|---------------------|



|-3h6-3h6-3h6-3h6-3h6-|   |-------------------------|
|---------------------|   |-------------------------|
|---------------------|   |------15-----------------|
|---------------------|   |-17-17----17-17-15-17----|repeat many 
|---------------------|   |-------------------------|   times
|---------------------|   |-------------------------|

  3:39

|-----------------------------------------------------------|
|18b20-18b20-(20)r18-p15----15------------------------------|
|------------------------17----15-17----17/19--15/17--------|
|-----------------------------------17---------------17-----|
|-----------------------------------------------------------|
|-----------------------------------------------------------|



This part is really hard to tell waht exactly he's playing and where,
but if you play something close to this it probably won't matter
since it goes so fast. Probably mostly hammer-ons and pull-offs.
 3:43

|-----------------15-18------18-15----------------------------------|
|-----------15-18------18-15-------18-15-------18-15----------------|
|------15-17-----------------------------17-15------17-15--17-15----|
|-15-17--------------------------------------------------17------17-|
|-------------------------------------------------------------------|
|-------------------------------------------------------------------|



this part i'm sure of:

|-----------------------------------------------|
|-----------------------------------------------|
|-----------------------------------------------|
|-15-17-----------------------------------------|
|--------17-17-17-17-17-17-17--15--13-----------|
|-------------------------------------15--------|




|--------------------------------------------|
|--------------------------------------------|
|--------------------------------------------|
|-5------5---5------5-------5------5--5------|
|-5--8b--5---5--8b--5--8b---5--8b--5--5------|
|-3--6b--3---3--6b--3--6b---3--6b--3--3------|


 3:56

|--------------------15-----15-------------15----15---15-----------|
|--18b20-18b20-18b20-18b20-----------------18b20------18b20--18b20-|
|------------------------------17-15-------------------------------|
|------------------------------------17-15-------------------------|
|------------------------------------------------------------------|
|------------------------------------------------------------------|




|--15p13--------15p13----------15p13---------|
|--------15p13---------15p13---------15p13---|
|--------------------------------------------|
|--------------------------------------------|
|--------------------------------------------|
|--------------------------------------------|


                                        etc..

|-------------------------------------------------------------------|
|18p15---------18p15---------18p15---------18p15--------18p15-------|
|------17p15--------17p15----------17p15--------17p15--------17p15--|
|------------17-----------17------------17-----------17-----------17|
|-------------------------------------------------------------------|
|-------------------------------------------------------------------|




|--------------------------------|
|--------------------------------|
|-15--17--15-17--15-17--15-17----|
|-15--17--15-17--15-17--15-17----| 4 times approximately
|--------------------------------|
|--------------------------------|


and finally...

|------------|
|------------|
|-15\\\------|
|-15\\\------|
|------------|
|------------|


If someone actually uses this or wants more tabs, enail me.

--part1_61.d214448.280670ad_alt_boundary
Content-Type: text/html; charset="US-ASCII"
Content-Transfer-Encoding: 7bit

 Eric Johnson : Live and Beyond
 Boogie King

Transcribed by Jeff Imig ([email protected])


|---------------------|----------|-----------------------|----------|
|----11--13b15-13b15--|----------|--13b15--13--11----11--|----------|
|-12------------------|----------|----------------12-----|----------|
|---------------------|----------|-----------------------|----------|
|---------------------|------3---|-----------------------|------3---|
|---------------------|-3-6----3-|-----------------------|-3--6---3-|



|-------------------------|---------|-------------------|----------|
|-------------------11----|---------|-------------------|----------|
|----------10-12-12----12-|---------|-------------------|----------|
|-10-12-12----------------|-----3---|--14b15--12--------|----------|
|-------------------------|-3-6---3-|------------15--13-|------3---|
|-------------------------|---------|-------------------|-3--6---6-|




|-------------------------|----------|--------------------|---------|
|-------------------------|----------|--------------------|---------|
|----------10-10----------|----------|-------12-12-15-12--|---------|
|----10-12-------12-10-12-|-----3----|-14b15--------------|---------|
|-12----------------------|-3-6---3--|--------------------|-----3---|
|-------------------------|----------|--------------------|-3-6---3-|




|--------------------------|---------|--------------------|---------|
|-13b15-13--11-13b15 13b15-|---------|-13b15-13-11-----11-|---------|
|--------------------------|---------|------------12-12---|---------|
|--------------------------|---------|--------------------|---------|
|--------------------------|-----3---|--------------------|-----3---|
|--------------------------|-3-6---3-|--------------------|-3-6---3-|




|--------------------------|--------|------------------|---------|
|--------------------------|--------|------------------|---------|
|----10-12--10-------------|--------|------------------|---------|
|-12-----------12-10-------|-----3--|--14b15--12-------|---------|
|--------------------13-10-|-3-6--3-|------------15-13-|-----3---|
|--------------------------|--------|------------------|-3-6---3-|




|-------------------------|----------------------------------------|
|-------------------------|----------------------------------------|
|----------10-10----------|--------7----5--------------------------|
|----10-12-------12-10-12-|------5-7--3-5-3-5-------3-5--------3-5-|
|-12----------------------|-5--8---5----3---5-----5---------5------|
|-------------------------|-----------------3---6-------3-6--------|



|-------------------------|--3-----3-------------------------|
|-------------------------|------6---3-6-3-------------------|
|----0--0-----------------|----------------5b7r5-p3----5-3---|
|-5--0--0-----------------|-------------------------5------5-|
|-5---------------3-------|----------------------------------|
|-3--------6-3--6---6-3---|----------------------------------|



|------------------------|----------|-------------------------------|
|------------------------|----------|--13b15-13-11-13b15-13b15------|
|----0--0----------------|----------|-------------------------------|
|-5--0--0----------------|------3-5-|-------------------------------|
|-5--------------3-------|----5-----|-------------------------------|
|-3-------6-3--6---6-3---|--6-------|-------------------------------|




|---------|
|---------|
|---------|
|---------|
|-----3---|
|-3-6---3-|




|---------------------|---------|---13-15--13------------|--------|
|-13b15-13-11------11-|---------|-15---------15-13-------|--------|
|-------------12-12---|---------|------------------15-12-|--------|
|---------------------|---------|------------------------|-----3--|
|---------------------|-----3---|------------------------|-3-6---3|
|---------------------|-3-6---3-|------------------------|--------|




|----------------|--------|-----------------------|
|----------------|--------|------------10---------|
|----------------|--------|---------10----10------|
|-14b15-12-------|--------|----10-12--------10-12-|
|----------15-13-|-----3--|--12-------------------|
|----------------|-3-6--3-|-----------------------|





|----------------------------------------------------------------|
|----------------------------------------------------------------|
|-------7----5--------------------------------0-0--------------0-|
|-----5-7--3-5--3-5--------3-5-------3-5---5--0-0--------------0-|
|-5-8---5----3----5------5---------5-------5-------------3-------|
|-----------------3----6-------3-6---------3-------6-3-6---6-----|




|---------15-----------------------------------------------------|
|-18b20------18-15-------18-15-----------------------------------|
|------------------15b17-------17-15-----17-15-------------------|
|------------------------------------17-------17-----------------|
|--------------------------------------------------15--13--------|
|---------------------------------------------------------15-15--|




|------------------------------------------------------------------|
|------------------------------------------------------------------|
|-0-0---------------0--0-----------7-------------------------------|
|-0-0-----------5---0--0---------3-5-----5-5------5---5---5-5------|
|-----------3---5--------------5-------8---5----8---7---5---5------|
|-----6-3-6---6-3--------6-3-6-------------3----------------3------|




|----------------------------------------------------6--------------|
|-------------------------------------------------------------------|
|----------------------------3--3--3-------------7\5----------------|
|--------------------5-3-5----5--5--5---3-5--------------3-5--5-5---|
|-5/8-b10r8b10r8/3--------------------------------------------------|
|-------------------------------------------------------------------|




|--------------------------------6--|-------------------------------|
|---------11b-----------------------|-------------------------------|
|-7\5/10----------3------7\5--------|-------------------------------|
|-------------3-5---5---------------|-5-3-3--------2------2---------|
|-----------------------------------|---------0h3-----0h2-----------|
|-----------------------------------|-------------------------------|




|-----------------|-----------------------|---------|
|-----------------|-----1---1--------1----|---------|
|---------3---3---|-----------------------|---------|
|--5-3-5----5---5-|-2h3---2----2-2h3----2-|----3-5--|
|-----------------|-----------------------|--5---5--|
|-----------------|-----------------------|------3--|




|-----------|----------------|-------------------------------------|
|-----------|----------------|----1---1--1-------1---1--1----------|
|-----3-----|----------3-----|-------------------------------------|
|-3-5---5---|------------5---|-2h3---2---2----2h3---3---2--2----3-5|
|-----------|----------------|--------------------------------5----|
|-----------|----------------|-------------------------------------|


         2:50

|---------------------------|
|-------------3~~~---3------|
|-----3-------3~~~---3------|
|-3-5--5--------------------| then some more fooling around
|---------------------------| in G at the third and fifth frets,
|---------------------------| hard to tell what he's playing



 3:13

|-----3-3----3--6-3-|---3-3-3---3-3-3-|---6h8-6h8-6h8--6h8--|
|---5------5--------|-5-------5-------|---------------------|
|-------------------|-----------------|---------------------|
|-------------------|-----------------|---------------------|
|-------------------|-----------------|---------------------|
|-------------------|-----------------|---------------------|



|-3h6-3h6-3h6-3h6-3h6-|   |-------------------------|
|---------------------|   |-------------------------|
|---------------------|   |------15-----------------|
|---------------------|   |-17-17----17-17-15-17----|repeat many 
|---------------------|   |-------------------------|   times
|---------------------|   |-------------------------|

  3:39

|-----------------------------------------------------------|
|18b20-18b20-(20)r18-p15----15------------------------------|
|------------------------17----15-17----17/19--15/17--------|
|-----------------------------------17---------------17-----|
|-----------------------------------------------------------|
|-----------------------------------------------------------|



This part is really hard to tell waht exactly he's playing and where,
but if you play something close to this it probably won't matter
since it goes so fast. Probably mostly hammer-ons and pull-offs.
 3:43

|-----------------15-18------18-15----------------------------------|
|-----------15-18------18-15-------18-15-------18-15----------------|
|------15-17-----------------------------17-15------17-15--17-15----|
|-15-17--------------------------------------------------17------17-|
|-------------------------------------------------------------------|
|-------------------------------------------------------------------|



this part i'm sure of:

|-----------------------------------------------|
|-----------------------------------------------|
|-----------------------------------------------|
|-15-17-----------------------------------------|
|--------17-17-17-17-17-17-17--15--13-----------|
|-------------------------------------15--------|




|--------------------------------------------|
|--------------------------------------------|
|--------------------------------------------|
|-5------5---5------5-------5------5--5------|
|-5--8b--5---5--8b--5--8b---5--8b--5--5------|
|-3--6b--3---3--6b--3--6b---3--6b--3--3------|


 3:56

|--------------------15-----15-------------15----15---15-----------|
|--18b20-18b20-18b20-18b20-----------------18b20------18b20--18b20-|
|------------------------------17-15-------------------------------|
|------------------------------------17-15-------------------------|
|------------------------------------------------------------------|
|------------------------------------------------------------------|




|--15p13--------15p13----------15p13---------|
|--------15p13---------15p13---------15p13---|
|--------------------------------------------|
|--------------------------------------------|
|--------------------------------------------|
|--------------------------------------------|


                                        etc..

|-------------------------------------------------------------------|
|18p15---------18p15---------18p15---------18p15--------18p15-------|
|------17p15--------17p15----------17p15--------17p15--------17p15--|
|------------17-----------17------------17-----------17-----------17|
|-------------------------------------------------------------------|
|-------------------------------------------------------------------|




|--------------------------------|
|--------------------------------|
|-15--17--15-17--15-17--15-17----|
|-15--17--15-17--15-17--15-17----| 4 times approximately
|--------------------------------|
|--------------------------------|


and finally...

|------------|
|------------|
|-15\\\------|
|-15\\\------|
|------------|
|------------|


If someone actually uses this or wants more tabs, enail me.


--part1_61.d214448.280670ad_alt_boundary--


--part1_61.d214448.280670ad_boundary
Content-Type: text/plain; name="Boogie King Mic Word.txt"
Content-Transfer-Encoding: quoted-printable
Content-Disposition: inline; filename="Boogie King Mic Word.txt"

 Eric Johnson : Live and Beyond
 Boogie King

Transcribed by Jeff Imig ([email protected])


|---------------------|----------|-----------------------|----------|
|----11--13b15-13b15--|----------|--13b15--13--11----11--|----------|
|-12------------------|----------|----------------12-----|----------|
|---------------------|----------|-----------------------|----------|
|---------------------|------3---|-----------------------|------3---|
|---------------------|-3-6----3-|-----------------------|-3--6---3-|



|-------------------------|---------|-------------------|----------|
|-------------------11----|---------|-------------------|----------|
|----------10-12-12----12-|---------|-------------------|----------|
|-10-12-12----------------|-----3---|--14b15--12--------|----------|
|-------------------------|-3-6---3-|------------15--13-|------3---|
|-------------------------|---------|-------------------|-3--6---6-|




|-------------------------|----------|--------------------|---------|
|-------------------------|----------|--------------------|---------|
|----------10-10----------|----------|-------12-12-15-12--|---------|
|----10-12-------12-10-12-|-----3----|-14b15--------------|---------|
|-12----------------------|-3-6---3--|--------------------|-----3---|
|-------------------------|----------|--------------------|-3-6---3-|




|--------------------------|---------|--------------------|---------|
|-13b15-13--11-13b15 13b15-|---------|-13b15-13-11-----11-|---------|
|--------------------------|---------|------------12-12---|---------|
|--------------------------|---------|--------------------|---------|
|--------------------------|-----3---|--------------------|-----3---|
|--------------------------|-3-6---3-|--------------------|-3-6---3-|




|--------------------------|--------|------------------|---------|
|--------------------------|--------|------------------|---------|
|----10-12--10-------------|--------|------------------|---------|
|-12-----------12-10-------|-----3--|--14b15--12-------|---------|
|--------------------13-10-|-3-6--3-|------------15-13-|-----3---|
|--------------------------|--------|------------------|-3-6---3-|




|-------------------------|----------------------------------------|
|-------------------------|----------------------------------------|
|----------10-10----------|--------7----5--------------------------|
|----10-12-------12-10-12-|------5-7--3-5-3-5-------3-5--------3-5-|
|-12----------------------|-5--8---5----3---5-----5---------5------|
|-------------------------|-----------------3---6-------3-6--------|



|-------------------------|--3-----3-------------------------|
|-------------------------|------6---3-6-3-------------------|
|----0--0-----------------|----------------5b7r5-p3----5-3---|
|-5--0--0-----------------|-------------------------5------5-|
|-5---------------3-------|----------------------------------|
|-3--------6-3--6---6-3---|----------------------------------|



|------------------------|----------|-------------------------------|
|------------------------|----------|--13b15-13-11-13b15-13b15------|
|----0--0----------------|----------|-------------------------------|
|-5--0--0----------------|------3-5-|-------------------------------|
|-5--------------3-------|----5-----|-------------------------------|
|-3-------6-3--6---6-3---|--6-------|-------------------------------|




|---------|
|---------|
|---------|
|---------|
|-----3---|
|-3-6---3-|




|---------------------|---------|---13-15--13------------|--------|
|-13b15-13-11------11-|---------|-15---------15-13-------|--------|
|-------------12-12---|---------|------------------15-12-|--------|
|---------------------|---------|------------------------|-----3--|
|---------------------|-----3---|------------------------|-3-6---3|
|---------------------|-3-6---3-|------------------------|--------|




|----------------|--------|-----------------------|
|----------------|--------|------------10---------|
|----------------|--------|---------10----10------|
|-14b15-12-------|--------|----10-12--------10-12-|
|----------15-13-|-----3--|--12-------------------|
|----------------|-3-6--3-|-----------------------|





|----------------------------------------------------------------|
|----------------------------------------------------------------|
|-------7----5--------------------------------0-0--------------0-|
|-----5-7--3-5--3-5--------3-5-------3-5---5--0-0--------------0-|
|-5-8---5----3----5------5---------5-------5-------------3-------|
|-----------------3----6-------3-6---------3-------6-3-6---6-----|




|---------15-----------------------------------------------------|
|-18b20------18-15-------18-15-----------------------------------|
|------------------15b17-------17-15-----17-15-------------------|
|------------------------------------17-------17-----------------|
|--------------------------------------------------15--13--------|
|---------------------------------------------------------15-15--|




|------------------------------------------------------------------|
|------------------------------------------------------------------|
|-0-0---------------0--0-----------7-------------------------------|
|-0-0-----------5---0--0---------3-5-----5-5------5---5---5-5------|
|-----------3---5--------------5-------8---5----8---7---5---5------|
|-----6-3-6---6-3--------6-3-6-------------3----------------3------|




|----------------------------------------------------6--------------|
|-------------------------------------------------------------------|
|----------------------------3--3--3-------------7\5----------------|
|--------------------5-3-5----5--5--5---3-5--------------3-5--5-5---|
|-5/8-b10r8b10r8/3--------------------------------------------------|
|-------------------------------------------------------------------|




|--------------------------------6--|-------------------------------|
|---------11b-----------------------|-------------------------------|
|-7\5/10----------3------7\5--------|-------------------------------|
|-------------3-5---5---------------|-5-3-3--------2------2---------|
|-----------------------------------|---------0h3-----0h2-----------|
|-----------------------------------|-------------------------------|




|-----------------|-----------------------|---------|
|-----------------|-----1---1--------1----|---------|
|---------3---3---|-----------------------|---------|
|--5-3-5----5---5-|-2h3---2----2-2h3----2-|----3-5--|
|-----------------|-----------------------|--5---5--|
|-----------------|-----------------------|------3--|




|-----------|----------------|-------------------------------------|
|-----------|----------------|----1---1--1-------1---1--1----------|
|-----3-----|----------3-----|-------------------------------------|
|-3-5---5---|------------5---|-2h3---2---2----2h3---3---2--2----3-5|
|-----------|----------------|--------------------------------5----|
|-----------|----------------|-------------------------------------|


=09     2:50

|---------------------------|
|-------------3~~~---3------|
|-----3-------3~~~---3------|
|-3-5--5--------------------| then some more fooling around
|---------------------------| in G at the third and fifth frets,
|---------------------------| hard to tell what he's playing



 3:13

|-----3-3----3--6-3-|---3-3-3---3-3-3-|---6h8-6h8-6h8--6h8--|
|---5------5--------|-5-------5-------|---------------------|
|-------------------|-----------------|---------------------|
|-------------------|-----------------|---------------------|
|-------------------|-----------------|---------------------|
|-------------------|-----------------|---------------------|




|-3h6-3h6-3h6-3h6-3h6-|   |-------------------------|
|---------------------|   |-------------------------|
|---------------------|   |------15-----------------|
|---------------------|   |-17-17----17-17-15-17----|repeat many=20
|---------------------|   |-------------------------|   times
|---------------------|   |-------------------------|


  3:39

|-----------------------------------------------------------|
|18b20-18b20-(20)r18-p15----15------------------------------|
|------------------------17----15-17----17/19--15/17--------|
|-----------------------------------17---------------17-----|
|-----------------------------------------------------------|
|-----------------------------------------------------------|



This part is really hard to tell waht exactly he's playing and where,
but if you play something close to this it probably won't matter
since it goes so fast. Probably mostly hammer-ons and pull-offs.
 3:43

|-----------------15-18------18-15----------------------------------|
|-----------15-18------18-15-------18-15-------18-15----------------|
|------15-17-----------------------------17-15------17-15--17-15----|
|-15-17--------------------------------------------------17------17-|
|-------------------------------------------------------------------|
|-------------------------------------------------------------------|



this part i'm sure of:

|-----------------------------------------------|
|-----------------------------------------------|
|-----------------------------------------------|
|-15-17-----------------------------------------|
|--------17-17-17-17-17-17-17--15--13-----------|
|-------------------------------------15--------|




|--------------------------------------------|
|--------------------------------------------|
|--------------------------------------------|
|-5------5---5------5-------5------5--5------|
|-5--8b--5---5--8b--5--8b---5--8b--5--5------|
|-3--6b--3---3--6b--3--6b---3--6b--3--3------|


 3:56

|--------------------15-----15-------------15----15---15-----------|
|--18b20-18b20-18b20-18b20-----------------18b20------18b20--18b20-|
|------------------------------17-15-------------------------------|
|------------------------------------17-15-------------------------|
|------------------------------------------------------------------|
|------------------------------------------------------------------|




|--15p13--------15p13----------15p13---------|
|--------15p13---------15p13---------15p13---|
|--------------------------------------------|
|--------------------------------------------|
|--------------------------------------------|
|--------------------------------------------|


=09=09=09=09=09=09                etc..

|-------------------------------------------------------------------|
|18p15---------18p15---------18p15---------18p15--------18p15-------|
|------17p15--------17p15----------17p15--------17p15--------17p15--|
|------------17-----------17------------17-----------17-----------17|
|-------------------------------------------------------------------|
|-------------------------------------------------------------------|




|--------------------------------|
|--------------------------------|
|-15--17--15-17--15-17--15-17----|
|-15--17--15-17--15-17--15-17----| 4 times approximately
|--------------------------------|
|--------------------------------|


and finally...
|------------|
|------------|
|-15\\\------|
|-15\\\------|
|------------|
|------------|

TOP cifras de Eric Johnson

  1. When The Sun Meets The Sky
  2. Camel's Night Out
  3. Ciel
  4. Venus Isle
  5. Enzo Shuffle
  6. Esmerald Eyes
  7. Forty Mile Town
  8. Columbia Intro
  9. High Landrons
  10. Manhattan Intro

Pela Web