Cifras Web
Forty Foot Echo

Save me

Forty Foot Echo

15 acessos

INTRO - 4 tempos


e----------------------------------------
b----------6--6--------------------------
g-8--8-----8--8--------5--5--------------
d-8--8-----8--8--------5--5-------6------
a-6--6-----6--6--------3--3-------6------
e---------------------------------4------


VERSE 1


e----------------------------------------
b----------6--6--------------------------
g-8--8-----8--8--------5--5--------------
d-8--8-----8--8--------5--5-------6------
a-6--6-----6--6--------3--3-------6------
e---------------------------------4------

Sit around and lose myself.....again


e----------------------------------------
b----------6--6--------------------------
g-8--8-----8--8--------5--5--------------
d-8--8-----8--8--------5--5-------6------
a-6--6-----6--6--------3--3-------6------
e---------------------------------4------

Never thought I'd wait....to realize


e---------------------------------------
b---------6--6--------------------------
g-8--8----8--8--------5--5--5-----5-----
d-8--8----8--8--------5--5--5-----5-----
a-6--6----6--6--------3--3--3-----3-----
e---------------------------------------

I can't hold on..........to what you see


e-----------------------
b-----------------------
g-3--3--3---3-----------
d-3--3--3---3--------6--
a-1--1--1---1--------6--
e--------------------4--

And I can't move......when you're down you'll see


e----------------------------------------
b----------6--6--------------------------
g-8--8-----8--8--------5--5--------------
d-8--8-----8--8--------5--5-------6------
a-6--6-----6--6--------3--3-------6------
e---------------------------------4------

A mistake.........is all I remember


e----------------------------------------
b----------6--6--------------------------
g-8--8-----8--8--------5--5--------------
d-8--8-----8--8--------5--5-------6------
a-6--6-----6--6--------3--3-------6------
e---------------------------------4------

Trying to hold on......to all of my ways

CHORUS


e--------------------------------
b--------------------------------
g--------------8--8--------------
d-6--6---------8--8--------------
a-6--6---------6--6--------------
e-4--4---------------------------

So save me......in my life


e---------------------------------
b---------------------------------
g-5--5-----------3--3-------------
d-5--5-----------3--3-------------
a-3--3-----------1--1-------------
e---------------------------------

Just hold on.....how could you realize?


e--------------------------------
b--------------------------------
g--------------8--8--------------
d-6--6---------8--8--------------
a-6--6---------6--6--------------
e-4--4---------------------------

So save me....in my life


e--------------------------------
b--------------------------------
g-5--5---------------------------
d-5--5-----------6---------------
a-3--3-----------6---------------
e----------------4---------------

Just hold on....got to realize.....


e----------------------------------------
b----------6--6--------------------------
g-8--8-----8--8--------5--5--------------
d-8--8-----8--8--------5--5-------6------
a-6--6-----6--6--------3--3-------6------
e---------------------------------4------



e----------------------------------------
b----------6--6--------------------------
g-8--8-----8--8--------5--5--------------
d-8--8-----8--8--------5--5-------6------
a-6--6-----6--6--------3--3-------6------
e---------------------------------4------

Goodbye......

VERSE 2


e----------------------------------------
b----------6--6--------------------------
g-8--8-----8--8--------5--5--------------
d-8--8-----8--8--------5--5-------6------
a-6--6-----6--6--------3--3-------6------
e---------------------------------4------

Sit around and find myself.....again


e----------------------------------------
b----------6--6--------------------------
g-8--8-----8--8--------5--5--------------
d-8--8-----8--8--------5--5-------6------
a-6--6-----6--6--------3--3-------6------
e---------------------------------4------

Never thought I'd wait ... to justify


e---------------------------------------
b---------6--6--------------------------
g-8--8----8--8--------5--5--5-----5-----
d-8--8----8--8--------5--5--5-----5-----
a-6--6----6--6--------3--3--3-----3-----
e---------------------------------------

I can't hold on..........to what you see


e-----------------------
b-----------------------
g-3--3--3---3-----------
d-3--3--3---3--------6--
a-1--1--1---1--------6--
e--------------------4--

And I can't move......when you're down you'll see

CHORUS


e--------------------------------
b--------------------------------
g--------------8--8--------------
d-6--6---------8--8--------------
a-6--6---------6--6--------------
e-4--4---------------------------

So save me......in my life


e---------------------------------
b---------------------------------
g-5--5-----------3--3-------------
d-5--5-----------3--3-------------
a-3--3-----------1--1-------------
e---------------------------------

Just hold on.....how could you realize?


e--------------------------------
b--------------------------------
g--------------8--8--------------
d-6--6---------8--8--------------
a-6--6---------6--6--------------
e-4--4---------------------------

So save me....in my life


e---------------------------------
b---------------------------------
g-5--5----------------------------
d-5--5-----------6----------------
a-3--3-----------6----------------
e----------------4----------------

Just hold on....got to realize.....

BRIDGE


e--------------------------------
b----11------------------11---8--
g-8------10---------8------------
d--------------------------------
a--------------------------------
e--------------------------------



e--------------------------------
b----11------------------11---8--
g-8------10---------8------------
d--------------------------------
a--------------------------------
e--------------------------------

Goodbye....


e--------------------------------
b----11------------------11---8--
g-8------10---------8------------
d--------------------------------
a--------------------------------
e--------------------------------

Goodbye....


e--------------------------------
b----11------------------11---8--
g-8------10---------8------------
d--------------------------------
a--------------------------------
e--------------------------------

Yeah.....my.......

SOLO


e------------------------------
b------------------------------
g-8--8----7----3--3------------
d------------------------------
a-6--6----5----1--1------------
e------------------------------



e------------------------------
b------------------------------
g-10--10----12-----------------
d------------------------------
a-8---8-----10-----------------
e------------------------------



e------------------------------
b------------------------------
g-13--13----12----8--8---------
d------------------------------
a-11--11----10----6--6---------
e------------------------------



e------------------------------
b------------------------------
g-7--5--3--5-------------------
d------------------------------
a-5--3--1--3-------------------
e------------------------------



e------------------------------
b------------------------------
g-8--8----7----3--3------------
d------------------------------
a-6--6----5----1--1------------
e------------------------------



e------------------------------
b------------------------------
g-10--10----12-----------------
d------------------------------
a-8---8-----10-----------------
e------------------------------



e------------------------------
b------------------------------
g-15--15--15------17--17--17---
d------------------------------
a-13--13--13------15--15--15---
e------------------------------



e------------------------------
b------------------------------
g-19--19--19--19---19---20-----
d------------------------------
a-17--17--17--17---17---18-----
e------------------------------


CHORUS


e--------------------------------
b--------------------------------
g--------------------------------
d-6------------------------------
a-6------------------------------
e-4------------------------------

So save me......


e--------------------------------
b--------------------------------
g--------------8--8--------------
d-6------------8--8--------------
a-6------------6--6--------------
e-4------------------------------

So save me......in my life


e--------------------------------
b--------------------------------
g-5--5-----------3--3------------
d-5--5-----------3--3------------
a-3--3-----------1--1------------
e--------------------------------

Just hold on.....how could you realize?


e--------------------------------
b--------------------------------
g--------------8--8--------------
d-6--6---------8--8--------------
a-6--6---------6--6--------------
e-4--4---------------------------

So save me....in my life


e--------------------------------
b--------------------------------
g-5--5-----------3--3------------
d-5--5-----------3--3------------
a-3--3-----------1--1------------
e--------------------------------

Just hold on.....how could you realize?


e--------------------------------
b--------------------------------
g--------------8--8--------------
d-6--6---------8--8--------------
a-6--6---------6--6--------------
e-4--4---------------------------

So save me......in my life


e--------------------------------
b--------------------------------
g-5--5-----------3--3------------
d-5--5-----------3--3------------
a-3--3-----------1--1------------
e--------------------------------

Just hold on.....how could you realize?


e--------------------------------
b--------------------------------
g--------------8--8--------------
d-6--6---------8--8--------------
a-6--6---------6--6--------------
e-4--4---------------------------

So save me....in my life


e--------------------------------
b--------------------------------
g-5--5---------------------------
d-5--5-----------6---------------
a-3--3-----------6---------------
e----------------4---------------

Just hold on....

Top cifras de Forty Foot Echo

  1. Save me
  2. Brand new day

Pela Web