Cifras Web
Fresno

Crocodilia

Fresno

26 acessos

Intro:


E|-6---------------------|
A|---4-6-4-6-6-6h7-7-6-4-|
D|-----------------------|   (3Xx)
G|-----------------------|
B|-----------------------|
E|-----------------------|



E|--------9-6-9-6---|
A|----8-6-----------|
D|8-6---------------|
G|------------------|
B|------------------|
E|------------------|



Bb            C#
Ei, o que aconteceu?
       Eb
Aonde foi que a minha alma desapareceu?

E|---------6-|
A|-6-4-6-4---|
D|-----------|
G|-----------|
B|-----------|
E|-----------|



  Bb             C#
Eu sei, de tanto amar
           Eb
Vejo um pedaço meu em tudo que é lugar.

E|-6---------------------|
A|---4-6-4-6-6-6h7-7-6-4-|
D|-----------------------|   (3x)
G|-----------------------|
B|-----------------------|
E|-----------------------|



E|--------9-6-9-6---|
A|----8-6-----------|
D|8-6---------------|
G|------------------|
B|------------------|
E|------------------|



Não, não, não acredito em inferno
É só uma ilusão, o sofrento é eterno
Mas eu posso ver do meu sexto andar
Não é perto de mim que você vai ter o seu lugar

E|-4-6-6-4-6-4---4-4-4-6-6-4-6-------|
A|-----------------------------4-4-4-|
D|-----------------------------------|  2X
G|-----------------------------------|
B|-----------------------------------|
E|-----------------------------------|



   Bb             C#
Eu sei, eu estava lá
        Eb
É bem pior do que você consegue imaginar

E|-----6--6-----|
A|-4-4------4-4-|
D|--------------|
G|--------------|
B|--------------|
E|--------------|



    Bb        C#           Eb
Eu não vou magoar se você desistir antes mesmo de tentar

E|-6---------------------|
A|---4-6-4-6-6-6h7-7-6-4-|
D|-----------------------|   (3x)
G|-----------------------|
B|-----------------------|
E|-----------------------|



E|--------9-6-9-6---|
A|----8-6-----------|
D|8-6---------------|
G|------------------|
B|------------------|
E|------------------|



Não, não, não acredito em saída
É só uma ilusão, facilita a vida
Mas eu posso ver do meu sexto andar
Não é perto de mim que você vai ter o seu lugar

E|-4-6-6-4-6-4---4-4-4-6-6-4-6-------|
A|-----------------------------4-4-4-|
D|-----------------------------------|  (2x)
G|-----------------------------------|
B|-----------------------------------|
E|-----------------------------------|



 Eb                  F#
E não há nada após o fim
Só cinzas das melhores intenções

E|-4-6-6-4-6-4---4-4-4-6-6-4-6-------|
A|-----------------------------4-4-4-|
D|-----------------------------------|  (2x)
G|-----------------------------------|
B|-----------------------------------|
E|-----------------------------------|



 Eb                    F#
Há muito a aprender de mim
Exemplo: como quebrar corações

E|-4-6-6-4-6-4---4-4-4-6-6-4-6-------|
A|-----------------------------4-4-4-|
D|-----------------------------------|  (2x)
G|-----------------------------------|
B|-----------------------------------|
E|-----------------------------------|



 Eb                   F
Não é algo de se orgulhar
                     F#
Eu me limito a te avisar:
           G#   Eb4/A
Não tente nunca me enganar

E|-6---------------------|
A|---4-6-4-6-6-6h7-7-6-4-|
D|-----------------------|   (3x)
G|-----------------------|
B|-----------------------|
E|-----------------------|



E|--------9-6-9-6---|
A|----8-6-----------|
D|8-6---------------|
G|------------------|
B|------------------|
E|------------------|



(repete várias vezes, com algumas variações, até o fim da música)

Não, não, não acredito em inferno
É só uma ilusão, o sofrento é eterno
Não, não, não acredito em saída
É só uma ilusão, facilita a vida

TOP cifras de Fresno

  1. Diga Parte 2
  2. Diga
  3. Stonehenge
  4. À Prova de Balas
  5. Eu Sou a Maré Viva
  6. Milonga
  7. Die Lüge
  8. Vida (Biografia em Ré Menor)
  9. Sono Profundo
  10. Cada Poça Dessa Rua Tem Um Pouco De Minhas Lágrimas

Pela Web