Cifras Web
Fresno

Europa

Fresno

26 acessos

(intro)


E |----------------------------------8----|
B |--------9-9-9-------------9-----9------|
G |--------------8-8----------------------|
D |--8-8-8------------8-8-8----8-8--------|   5x
A |---------------------------------------|
E |---------------------------------------|



E |--------8-----8-----8----8-9-8---------|
B |---------------------------------------|
G |---------------------------------------|
D |--8-8-8---8-8---8-8----8---------------|
A |---------------------------------------|
E |---------------------------------------|



E |----------------------------------8----|
B |--------9-9-9-------------9-----9------|
G |--------------8-8----------------------|
D |--8-8-8------------8-8-8----8-8--------|   3x
A |---------------------------------------|
E |---------------------------------------|



E |--------8-----8-----8----8-9-8---------|
B |---------------------------------------|
G |---------------------------------------|
D |--8-8-8---8-8---8-8----8---------------|
A |---------------------------------------|
E |---------------------------------------|


Bbm                 Ebm
Quando soltei a sua mão

As flores do seu lado

Serviam pra te consolar
Bbm               Ebm
Imagens na televisão
                  Fm
São parte do passado
        Ebm                   Bbm
De um pesadelo e não há como acordar

                                         Ebm
Perceber que não há nenhum dia para você recordar
                                                 Bbm
Que aqui fora só existem lembranças que você vai se lembrar
                                                Ebm
Dos espelhos que sempre mostraram tristeza no seu olhar


E |---------------------|
B |---------------------|
G |---------------------|
D |-------------4-3-----|
A |-1-3-4-1-3-1-----4---|
E |---------------------|


Bbm                G#
Presa dentro dessa dor
Sem ninguém pra te ajudar
Bbm              G#
Presa nesse corredor
Desistindo de tentar
Bbm                G#
Presa dentro dessa dor
Não há como te salvar
Bbm              G#
Presa onde você for

Bbm
Me diga o que fazer sozinho
Eu não sei
G#
Me diz se eu devo ser caminho
Que eu trilhei
F#
Eu prometi um dia te mostrar
                            Ebm
Jurei que iria te levar pra outro lugar
Bbm
E como eu vou viver sozinho?
Eu não sei
G#
Se me perdi nos teus caminhos
F#
No dia em que você me perdeu
Ebm          Fm         F#   G#  Bbm
Me diga como tudo isso aconteceu
G#                           F#
Aonde foi que a gente esqueceu?
Ebm                 Bbm Ebm G# F#
Presa dentro dessa dor

                           Bbm
Eu descobri que também estou..
                    G#
Preso dentro dessa dor
                       Bbm
Sem ninguém pra me ajudar
                  G#
Preso nesse corredor
                  Bbm
Desistindo de tentar
                    G#
Preso dentro dessa dor
                  Bbm
Não há como me salvar
                   G#
Eu vou aonde você for
                          (Bbm G#) 4x (Bbm) (Bbm G# Ebm F# C#)
E a sua mão não vou soltar

TOP cifras de Fresno

  1. Diga Parte 2
  2. Diga
  3. Stonehenge
  4. À Prova de Balas
  5. Eu Sou a Maré Viva
  6. Die Lüge
  7. Milonga
  8. Vida (Biografia em Ré Menor)
  9. Sono Profundo
  10. Cada Poça Dessa Rua Tem Um Pouco De Minhas Lágrimas

Pela Web