Cifras Web
Fresno

Icarus

Fresno

25 acessos

Leiam as observações no final antes de começar a tocar.

Intro:

E|-----------------------------------------------------------------------|
B|-----------------------------------------------------------------------|
G|-----------------------------------------------------------------------|
D|--3----2----1----0--------0---0-----0----0--------0----0---------------|
A|--3----2----1----0--------0---0-----0----0--------0----0---------------|
D|--3----2----1----0----4---0---0--4--0----0----4---0----0---------------|



E|-----------------------------------------------------------------------|
B|-----------------------------------------------------------------------|
G|-----------------------------------------------------------------------|
D|--3----2----1----0--------0---0-----0----0-------0---------------------|
A|--3----2----1----0--------0---0-----0----0-------0---------------------|
D|--3----2----1----0----4---0---0--4--0----0----4--0---------------------|



E|-----------------------------------------------------------------------|
B|-----------------------------------------------------------------------|
G|-----------------------------------------------------------------------|
D|--10----9----10----0--------0---0-----0----0--------0----0-------------|
A|--10----9----10----0--------0---0-----0----0--------0----0-------------|
D|--10----9----10----0----4---0---0--4--0----0----4---0----0-------------|



E|-----------------------------------------------------------------------|
B|-----------------------------------------------------------------------|
G|-----------------------------------------------------------------------|
D|--3----2----1----0--------0---0-----0----0--------0--------------------|
A|--3----2----1----0--------0---0-----0----0--------0--------------------|
D|--3----2----1----0----4---0---0--4--0----0----4---0--------------------|



E|-----------------------------------------------------------------------|
B|-----------------------------------------------------------------------|
G|-----------------------------------------------------------------------|
D|--5----6----7----3----4----5-------5----6----7----3----4----5----------|
A|--5----6----7----3----4----5-------5----6----7----3----4----5----------|
D|--5----6----7----3----4----5-------5----6----7----3----4----5----------|


(Riff 1)

E|-----------------------------------------------------------------------|
B|-----------------------------------------------------------------------|
G|-----------------------------------------------------------------------|
D|--5--3--0--5--3--0--3--0-----------------------------------------------|
A|--5--3--0--5--3--0--3--0-----------------------------------------------|
D|--5--3--0--5--3--0--3--0-----------------------------------------------|


(Riff 2)

E|-----------------------------------------------------------------------|
B|-----------------------------------------------------------------------|
G|-----------------------------------------------------------------------|
D|-----------------------------------------------------------------------|
A|---------5---------5--------7-------7----------------------------------|
D|--4--4-----4--4-----/5--5-----5--5-------------------------------------|


(Riff 3)

E|-----------------------------------------------------------------------|
B|-----------------------------------------------------------------------|
G|-----------------------------------------------------------------------|
D|--------------------------------------------------------------------|
A|--------------------------------------------------------------|
D|--------------------------------------------------------------|


(Riff 4)

E|-----------------------------------------------------------------------|
B|-----------------------------------------------------------------------|
G|-----------------------------------------------------------------------|
D|--5--3--0--5--3--0--5--7-----------------------------------------------|
A|--5--3--0--5--3--0--5--7-----------------------------------------------|
D|--5--3--0--5--3--0--5--7-----------------------------------------------|


(Riff 5)

E|-------------------------------------------------------------------------|
B|-------------------------------------------------------------------------|
G|-------------------------------------------------------------------------|
D|--7-7-7-7-7-5-7-8-8-8-8-8-8-7-8-9-9-9-9-9-9-8-9-10-10-10-10-10-10-10-10--|
A|--7-7-7-7-7-5-7-8-8-8-8-8-8-7-8-9-9-9-9-9-9-8-9-10-10-10-10-10-10-10-10--|
D|--7-7-7-7-7-5-7-8-8-8-8-8-8-7-8-9-9-9-9-9-9-8-9-10-10-10-10-10-10-10-10--|







D           D5+        D6           D7              A#5      A5       G5 (Riff1)
Munido de coragem e de asas em seus pés foi que ele disse adeus pro chão
D                  D5+            D6        D7           A#5         A5       G5
E a terra nem se quer pensou em lhe retribuir, levou consigo os sonhos nas mãos


Refrão:
          (Riff 2)
    F#5             G5         D (Riff3)     B5         G5                D
Se existe prisão é pra você fugir, eles nem vão perceber quando sumir
               (Riff 2)
         F#5          G5         D(Riff3)  B5              C5          D
A sombra desse medo vai te destruir ainda temos muito pra viver





Intro + Variação

E|-----------------------------------------------------------------------|
B|-----------------------------------------------------------------------|
G|-----------------------------------------------------------------------|
D|--3----2----1----0--------0---0-----0----0--------0----0---------------|
A|--3----2----1----0--------0---0-----0----0--------0----0---------------|
D|--3----2----1----0----4---0---0--4--0----0----4---0----0---------------|



E|-----------------------------------------------------------------------|
B|-----------------------------------------------------------------------|
G|-----------------------------------------------------------------------|
D|--3----2----1----0--------0---0-----0----0--------0--------------------|
A|--3----2----1----0--------0---0-----0----0--------0--------------------|
D|--3----2----1----0----4---0---0--4--0----0----4---0--------------------|


(Variação)

E|-----------------------------------------------------------------------|
B|-----------------------------------------------------------------------|
G|-----------------------------------------------------------------------|
D|-----------------------------------------------------------------------|
A|------------10--9------------------------------------------------------|
D|--10-9-----------------------------------------------------------------|




D           D5+        D6           D7              A#5      A5            G5 (Riff4)
Todo dia as horas se recusam pra passar, seus olhos fecham pra glória e você diz não
(Riff5)                                                                               A#5
E se você quiser ver que não importa o lugar e que o que prende você é algo que você não
           A5     G5
pode enxergar, está em suas mãos


Refrão:
          (Riff 2)
    F#5         G5         D (Riff3)           B5              G5                D
Se existe prisão é pra você fugir, eles nem vão perceber quando sumir
               (Riff 2)
         F#5          G5           D(Riff3)  B5              C5          D
A sombra desse medo vai te destruir ainda temos muito pra viver



Instrumental base da guitarra (A#5, A5, C5, B5, F5, E5, D#5, D)
                               A#5, A5, C5, B5, F5, E5, G5, D
                               A#5, A5, C5, B5, F5, E5, D#5


Final:

E|-----------------------------------------------------------------------|
B|-----------------------------------------------------------------------|
G|-----------------------------------------------------------------------|
D|--3----2----1----0--------0---0-----0----0--------0----0---------------|
A|--3----2----1----0--------0---0-----0----0--------0----0---------------|
D|--3----2----1----0----4---0---0--4--0----0----4---0----0---------------|



E|-----------------------------------------------------------------------|
B|-----------------------------------------------------------------------|
G|-----------------------------------------------------------------------|
D|--3----2----1----0--------0---0-----0----0--------0--------------------|
A|--3----2----1----0--------0---0-----0----0--------0--------------------|
D|--3----2----1----0----4---0---0--4--0----0----4---0--------------------|



E|-----------------------------------------------------------------------|
B|-----------------------------------------------------------------------|
G|-----------------------------------------------------------------------|
D|-----------------------------------------------------------------------|
A|------------10--9------------------------------------------------------|
D|--10-9-----------------------------------------------------------------|



E|-----------------------------------------------------------------------|
B|-----------------------------------------------------------------------|
G|-----------------------------------------------------------------------|
D|--3----2----1----0--------0---0-----0----0--------0----0---------------|
A|--3----2----1----0--------0---0-----0----0--------0----0---------------|
D|--3----2----1----0----4---0---0--4--0----0----4---0----0---------------|



E|-----------------------------------------------------------------------|
B|-----------------------------------------------------------------------|
G|-----------------------------------------------------------------------|
D|--3----2----1----0--------0---0-----0----0--------0--------------------|
A|--3----2----1----0--------0---0-----0----0--------0--------------------|
D|--3----2----1----0----4---0---0--4--0----0----4---0--------------------|



E|-----------------------------------------------------------------------|
B|-----------------------------------------------------------------------|
G|-----------------------------------------------------------------------|
D|--5----6----7----3----4----5-------5----6----7----3----4----5----------|
A|--5----6----7----3----4----5-------5----6----7----3----4----5----------|
D|--5----6----7----3----4----5-------5----6----7----3----4----5----------|



Obs: Não se esqueçam de mudar a afinação da sua guitarra para Drop D (D,A,D,G,B,E)
O "Riff3" do refrão são harmônicos naturais, não se esqueça
Você pode tocar o refrão tanto com o "Riff3" ou com os acordes F#5 e G5

TOP cifras de Fresno

  1. Diga Parte 2
  2. Diga
  3. Stonehenge
  4. À Prova de Balas
  5. Eu Sou a Maré Viva
  6. Milonga
  7. Die Lüge
  8. Vida (Biografia em Ré Menor)
  9. Cada Poça Dessa Rua Tem Um Pouco De Minhas Lágrimas
  10. Sono Profundo

Pela Web