Cifras Web
Fresno

Quebre As Correntes

Fresno

26 acessos

(intro) (2x)

(na última nota deixe soar, nas duas vezes)


E |------------------------------0000-0000-00--------------------
B |--5555-5555-55--4444-4444-44----------------2222-2222-22------
G |--6666-6666-66--2222-2222-22--4444-4444-44----------------2~--
D |--6666-6666-66--4444-4444-44--2222-2222-22--2222-2222-22--2~--
A |--4444-4444-44--3333-3333-33--2222-2222-22--1111-1111-11--0~--
E |--------------------------------------------------------------


(verso) (2x)

E |----------------------00--00----------------
B |--55--55----44--44--------------22--22------
G |--66--66----22--22----44--44-------------2~-
D |--66--66----44--44----22--22----22--22---2~-
A |--44--44----33--33----22--22----11--11---0~-
E |--------------------------------------------


(verso)
         C#m
O que fazer
              
quando não estão mais nem aí
       E/B
para você?
            A#º
Quando seu mundo não passa
              A9
de uma prisão


E |---------11-12---------||
B |-----------------------||
G |--9-8-9--------9/11-9--||


         C#m
O que dizer
                                 E/B
quando a sua vida não é igual à da TV?
              A#º
Quando as pessoas tratam mal
            A9
seu coração (quebre as correntes...)


E |---------11-12---------||
B |-----------------------||
G |--9-8-9--------9/11-9--||


(refrão)
E                 B
  Prometa não chorar
                 C#m
e não se arrepender  (não chorar)
 
  não chorar!
E                  B
  O que você precisar
                  C#m
se encontra em você   (não chorar)

  (não chorar)

(verso)
         C#m
E como agir
                                   E/B
se mãos amigas se transformam em punhais?
        A#º
E todos acham que você
            A9
não é capaz(de desatar os nos)

E |---------11-12---------||
B |-----------------------||
G |--9-8-9.-------9/11-9--||


           C#m
E o que sentir
                                E/B
quando até mesmo voce chega a duvidar
            A#º                   A9
que ainda existe alguma chance de virar (o jogo pra você)


B |--------------12-10-9/109-----||
G |--8-11-9.-8/9--------------9~-||


F#m            A          C#9
   Não vou deixar desmoronar
          E            F#m
castelos que eu construi
               A
com as minhas mãos na areia
C#9                    E
   A vida tem de prosseguir

(refrão 2x)

TOP cifras de Fresno

  1. Diga Parte 2
  2. Diga
  3. Stonehenge
  4. À Prova de Balas
  5. Eu Sou a Maré Viva
  6. Milonga
  7. Die Lüge
  8. Vida (Biografia em Ré Menor)
  9. Sono Profundo
  10. Cada Poça Dessa Rua Tem Um Pouco De Minhas Lágrimas

Pela Web