Cifras Web
Gavin Degraw

We Belong Together

Gavin Degraw

9 acessos

Intro: 
 
(F#m B Em C G) 
e|--2-2-2--2-2-2-2-2-----0-0-0--0-0-0--3-3-3------------------------------| 
b|--2-2-2--3-3-3-3-3-----0-0-0--1-1-1--3-3-3------------------------------| 
g|--2-2-2--3-3-3p2-2-----0-0-0--0-0-0--0-0-0------------------------------| 
d|--4-4-2--3-3-3-3-3-----2-2-2--2-2-2--0-0-0------------------------------| 
a|--4-4-4--2-2-2-2-2-----2-2-2--3-3-3--2-2-2------------------------------| 
E|--2-2-2--2-2-2-2-2----0~~0-0--0-0-0--3-3-3------------------------------| 
 
(Em C D Em C G Em C G) 
e|--0-0-0--0-0-0--2-2h3p2----0-0-0--0-0-0--3-3-3--0-0--0-0--3-3-----------| 
b|--0-0-0--1-1-1--3-3-3-3----0-0-0--1-1-1--3-3-3--0-0--1-1--3-3-----------| 
g|--0-0-0--0-0-0--2-2-2-2----0-0-0--0-0-0--0-0-0--0-0--0-0--0-0-----------| 
d|--2-2-2--2-2-2--0-0-0-0----2-2-2--2-2-2--0-0-0--2-2--2-2--0-0-----------| 
a|--2-2-2--3-3-3--0-0-0-0----2-2-2--3-3-3--2-2-2--2-2--3-3--2-2-----------| 
E|--0-0-0--0-0-0--x-x-x-x---0~~0-0--0-0-0--3-3-3--0-0--0-0--3-3-----------| 
 
Pre-Verse: 
 
Em C G 
Em C D 
Em C G Em C G 
 
Verse 1: 
 
G Em C Am7 G 
G Em C Am7 D G 
 
Chorus: 
 
Em C G 
Em C D 
Em C G Em C G 
 
Verse 2: 
 
G Em C Am7 G 
G Em C Am7 D G 
 
 
Chorus: 
 
Em C G 
Em C D 
Em C G Em C G 
 
Em C G 
Em C D 
Em C G Em C G 
 
Outro: 
 
(Em C Bm7 Em D) 
e|------0------------------0---------2h3p2--------------------------| 
b|-----0-0----------------0-0-------3-------------------------------| 
g|----0---0---0---0------0---0---0-2--------------------------------| 
d|---2-----2-2---0---0--2-----2-2-0---------------------------------| 
a|----------3------------------3------------------------------------| 
E|--0~----------3---2--0~-------------------------------------------| 
 
(Em C Bm7 Em C) 
e|-------------------------------0----3---------------3------------3-| 
b|-----0-0~~~---------------0----1---3-3-----0---1---3-3-----0---1-3-| 
g|----0----0-----0---0-----0----0---0---0---0---0---0---0---0---0--0-| 
d|---2------2---2---0--0--2----2---0-----0-2---2---0-----0-2---2---0-| 
a|-----------3-3--------------3---------------3---------------3----2-| 
E|--0~-------------3--2--0--------3-------0-------3-------0--------3-|

TOP cifras de Gavin Degraw

  1. Untamed
  2. Cop Stop
  3. I Dont Wanna Be
  4. Belief
  5. Dreams
  6. Nice To Meet You Anyway
  7. Run Every Time
  8. Soldier
  9. Chariot Intro
  10. Mountains To Move

Pela Web